Oops, an error
Loading. Please wait.

Beautifully Broken tab

version 2
version 2

Whole song

379 views 3 this week
no commentswrite comment
1 2 3 4 5
3 more votes to show rating
add to favorites
×
Save as Personal and add changes to this tab that will be seen only by you. Learn more ›
×
You can save this tab as Personal to edit and correct it or add notes. All changes will be seen only by you. Learn more »
launch autoscroll
font size
0
reset
how to read this tab
guitar tuner
edit
Autoscroll
slow
fast
+/-
esc
set tempo
stop
Author
[Intro]

e|-----------------------------------|
B|--8h10p8---------------------------|
G|--7---—---9p7\5--5h7p5----5--------|
D|----------7--\5--5----h5--5h7p5----|
A|-------------------------------h5--|
E|-----------------------------------|


[Bridge 1]

e|--------------------------------------------------------|
B|---------------------------------------3--3---3----3----|
G|------5h7-5h7p5------5-----------------2--2---2----2----|
D|------5---5------------5h7p5----------------------------| x1
A|--0--------------5h7---------7\3------------------------|
E|---------------------------------2--2-------1---1-------|


[Bridge 2]

e|----------------------------------------------------------|
B|------------------------------------------3-----3----3----|
G|---------5h7-5h7p5------5-----------------2-----2----2----|
D|---------5---5------------5h7p5---------------------------| x3
A|--0--0--------------5h7---------7\3-----------------------|
E|------------------------------------2--2------1---1-------|


[Verse]

E7        FM13                E7
Mysterious, blown in with the night
                Dm
All this beauty captured in a frame
E7            FM13        E7
Visibly shaken, but never stirred
            D
Drives them insane

[Pre-Chorus]

Dm                G
I see the way she plays her men
      C    CM9/B            E7
And I know I've got to know her name

[Chorus]

She's so...
         Am    
e|-------5-------------------------------------|
B|-------5--------------------3-----3----3-----|
G|-------5-------5------------2-----2----2-----|
D|-------7-------5-----------------------------|
A|-------7----5h7---7\3------------------------|
E|--5-5--5--------------2--2------1---1--------|

Shape by the wind...
         Am    
e|-------5-------------------------------------|
B|-------5--------------------3-----3----3-----|
G|-------5----5h7p5-----------2-----2----2-----|
D|-------7---------h7\3------------------------|
A|-------7-------------------------------------|
E|--5-5--5--------------2--2------1---1--------|

Dangeoursly twisted... Here I go again
         Am    
e|-------5-------------------------------------|
B|-------5--------------------3-----3----3-----|
G|-------5-------5------------2-----2----2-----|
D|-------7-------5-----------------------------| x2
A|-------7----5h7---7\3------------------------|
E|--5-5--5--------------2--2------1---1--------|

[Verse 2]

E7                FM13          E7
I see the way she cast her spell
                      Dm
It's like drowning in moonlight
E7              FM13       E7
Discards them she's done
                      D
They're lost in her twilight

[Pre-Chorus]

Dm                    G
I watch her move from star to star
      C           CM9/B          E7
And I wonder why, why it feels so right

[Chorus]

She's so...
         Am    
e|-------5-------------------------------------|
B|-------5--------------------3-----3----3-----|
G|-------5-------5------------2-----2----2-----|
D|-------7-------5-----------------------------|
A|-------7----5h7---7\3------------------------|
E|--5-5--5--------------2--2------1---1--------|

You can barely...
         Am    
e|-------5-------------------------------------|
B|-------5--------------------3-----3----3-----|
G|-------5----5h7p5-----------2-----2----2-----|
D|-------7---------h7\3------------------------|
A|-------7-------------------------------------|
E|--5-5--5--------------2--2------1---1--------|

Specially from a distance...
         Am    
e|-------5-------------------------------------|
B|-------5--------------------3-----3----3-----|
G|-------5-------5------------2-----2----2-----|
D|-------7-------5-----------------------------|
A|-------7----5h7---7\3------------------------|
E|--5-5--5--------------2--2------1---1--------|

Which is always how I fall

         Am (3, 4 times, whaterever)    
e|-------5-------------------------------------|
B|-------5-------------------------------------|
G|-------5-------------------------------------|
D|-------7-------------------------------------|
A|-------7-------------------------------------|
E|-------5-------------------------------------|


[Interlude]

F                     Dm
Why do I fall for the dangerous ones
    G                          C     CM9/B
The ones that never learned to let go
F            Dm
And why do I lie to myself
       C
And pretend that I can break her
     E7
When she's already been so


[Solo]

Am Pentatonic


[Interlude]

F                     Dm
Why do I fall for the dangerous ones
    G                           C     CM9/B
The ones that don't know how to let go
F            Dm 
And why do I lie to myself
       C
And pretend that I could break her
     E7 
When she's already been so


[Solo]

Am Pentatonic

Play Bridge several times at the end


******************************************

| x  Dead note
| h  Hammer-on
| p  Pull-off
| \  Slide down

Chords you will need:

    E7  FM13  Dm   G    Dm   C  CM9/B
e|--0----0----5----3----1---------------|
B|--3----3----6----3----3----1----1-----|
G|--1----2----7----0----2----0----0-----|
D|--2----x----7----0----0----2----0-----|
A|--2----3----5----2---------3----2-----|
E|--0----1---------3--------------------|


*****************************************
Suggest correction
Creating personal tab
Creating personal tab
You can edit any tab online and save it as your Personal.

You can edit, replace or remove any tab part or add personal notes – all changes will be seen only by you.

Personal tabs can be accessed anytime from any device, even offline.
Learn more »
Give kudos to tab author, rate the tab!
1 2 3 4 5
comments
print report bad tab
guest
You may want to rate the tab now too:
select rating
Wanna post a correction for this tab? Suggest correction