Oops, an error
Loading. Please wait.

Drivin Rain tab

version 2
version 2

Whole song

Interactive

1,145 views 1 this week
no commentswrite comment
1 2 3 4 5
3 more votes to show rating
add to favorites
×
Save as Personal and add changes to this tab that will be seen only by you. Learn more ›
×
You can save this tab as Personal to edit and correct it or add notes. All changes will be seen only by you. Learn more »
launch autoscroll
font size
0
reset
how to read this tab
guitar tuner
edit
Autoscroll
slow
fast
+/-
esc
set tempo
stop
                                  DRIVIN' RAIN
                            As recorded by Gov't Mule
                   (From the 2002 Album THE DEEP END VOLUME 2)

Words and Music by Warren Haynes
Transcribed by Slowhand

Gtr I (E A D G B E) - 'Guitar 1'
Gtr II (E A D G B E) - 'Guitar 2'
Gtr III (E A D G B E) - 'Guitar 3'

 Intro
  Q=120
  B5 N.C.                            B5  N.C.
 4/4
  Gtr I
  Q  E E e E E E   E E Q  E  E E E   Q   E E e E E E   E E Q  E  E E E
|----------------|-----------------|-----------------|-----------------|
|----------------|-----------------|-----------------|-----------------|
|--------7-7-----|-----7-------9---|---------7-7-----|-----7-------9---|
|-9------7-7-9p7-|-----7-------9---|-9\------7-7-9p7-|-----7-------9---|
|-9--7h9-----9p7-|-7h9----9s11-----|-9\--2s9---------|-7h9----9s11-----|
|-7--------------|-----------------|-7\--------------|-----------------|


  B5        N.C.
  Gtr II
                           |----3----|
  S     +E. +H.            Q   Q    +Q      e      E     +E  E
|------------------------|-------------------------------------|
|------------------------|-------------------------------------|
|-9b11==(9)-(9)----------|-9---9r---(9)pb10-9pb10--9pb10r(9)p7-|
|------------------------|-------------------------------------|
|------------------------|-------------------------------------|
|------------------------|-------------------------------------|
|
| Gtr I
| Q          E E e E E E   E E    Q         E      E      E  E
|------------------------|-------------------------------------|
|------------------------|-------------------------------------|
|----------------7-7-----|--------7-----------------------9----|
|-9\-------------7-7-9p7-|--------7-----------------------9----|
|-9\---------2s9---------|-7h9--------------9s====11-----------|
|-7\---------------------|-------------------------------------|


  B5     N.C.
   Q      E     +E   +H                +H        Q    E E
|-----------------------------------|---------------------||
|-10b12r=10b11-(10)-(10)pb12========|=(10)r---------------||
|-----------------------------------|---------------------||
|-----------------------------------|---------------------||
|-----------------------------------|-------------------9-||
|-----------------------------------|-------------------7-||
|
|  Q      E      E    e       E E E     E   E Q  E  E E E
|-----------------------------------|---------------------||
|-----------------------------------|---------------------||
|---------------------7-------7-----|---------7-------9---||
|--9\-----------------7-------7-9p7-|---------7-------9---||
|--9\-----2s=====9------------------|---7h==9----9s11-----||
|--7\-------------------------------|---------------------||


 1st Verse
  N.C.
  PM------------|                    PM------------|
  E E E E E E E E   Q  E E +Q.   E   E E E E E E E E   Q  E E +Q.    E
|-----------------|----------------|-----------------|-------------------|
|-----------------|----------------|-----------------|-------------------|
|-----------------|-9----7-(7)-----|-----------------|-9----7-(7)--------|
|-----------------|-9----7-(7)-----|-----------------|-9----7-(7)--------|
|-----------------|----------------|-----------------|-------------------|
|-7-7-7-7-7-7-7-7-|--------------5s|=7-7-7-7-7-7-7-7-|---------------5s==|
|
| PM------------|                    PM------------|
| E E E E E E E E   Q  E E +H        E E E E E E E E   Q  E E +Q   E E
|-----------------|----------------|-----------------|-------------------|
|-----------------|----------------|-----------------|-------------------|
|-----------------|-9----7-(7)-----|-----------------|-9----7-(7)--------|
|-----------------|-9----7-(7)-----|-----------------|-9----7-(7)--------|
|-----------------|----------------|-----------------|-------------------|
|-7-7-7-7-7-7-7-7-|----------------|-7-7-7-7-7-7-7-7-|-------------0-0---|


    PM------------|
    E E E E E E E E   Q  E E +Q.   E
||------------------|-----------------||
||o-----------------|----------------o||
||------------------|-9----7-(7)------||
||------------------|-9----7-(7)------||
||o-----------------|----------------o||
||--7-7-7-7-7-7-7-7-|--------------5s=||
|
|   PM------------|
|   E E E E E E E E   Q  E E +H
||------------------|-----------------||
||o-----------------|----------------o||
||------------------|-9----7-(7)------||
||------------------|-9----7-(7)------||
||o-----------------|----------------o||
||--7-7-7-7-7-7-7-7-|-----------------||


  PM----------|
  E E E E E E E S S    Q    E E +Q.   E
|-------------------|---------------------|
|-------------------|--9------7-(7)-------|
|-------------------|---------------------|
|---------------6s9-|-(9)--\7-7-(7)-------|
|-------------------|---------------------|
|-7-7-7-7-7-7-7-----|-----------------5s==|
|
| PM------------|
| E E E E E E E E      Q    E E +H
|-------------------|---------------------|
|-------------------|---------------------|
|-------------------|--9------7-(7)-------|
|-------------------|--9------7-(7)-------|
|-------------------|---------------------|
|-7-7-7-7-7-7-7-7---|---------------------|


  PM----------|
  E E E E E E E S S    Q    E E +Q.   E
|-------------------|-------------------|
|-------------------|--9------7-(7)-----|
|-------------------|-------------------|
|---------------6s9-|-(9)--\7-7-(7)-----|
|-------------------|-------------------|
|-7-7-7-7-7-7-7-----|-----------------5s|
|
| PM------------|
| E E E E E E E E      Q    E E +H
|-------------------|-------------------|
|-------------------|-------------------|
|-------------------|--9------7-(7)-----|
|-------------------|--9------7-(7)-----|
|-------------------|-------------------|
|-7-7-7-7-7-7-7-7---|-------------------|


  PM----------|
  E E E E E E E S S    Q    E E +Q.   E
|-------------------|---------------------|
|-------------------|--9------7-(7)-------|
|-------------------|---------------------|
|---------------6s9-|-(9)--\7-7-(7)-------|
|-------------------|---------------------|
|-7-7-7-7-7-7-7-----|-----------------5s==|
|
| PM------------|
| E E E E E E E E      Q    E E +H
|-------------------|---------------------|
|-------------------|---------------------|
|-------------------|--9------7-(7)-------|
|-------------------|--9------7-(7)-------|
|-------------------|---------------------|
|-7-7-7-7-7-7-7-7---|---------------------|


                                           Chorus
                                            B5    D5 A5     B5    D5 A5
  PM----------|
  E E E E E E E S S    Q    E E +Q.    E    Q  Q  Q  Q    E E E E Q  Q
|-------------------|--------------------||-------------|-------------------|
|-------------------|--9------7-(7)------||-------------|-------------------|
|-------------------|--------------------||-------7-----|---------7---------|
|---------------6s9-|-(9)--\7-7-(7)------||-9-----7--7--|---9-----7--7------|
|-------------------|--------------------||-9-----5--7--|---9-----5--7------|
|-7-7-7-7-7-7-7-----|--------------------||-7--------5--|---7---x----5------|
|
| PM------------|
| E E E E E E E E      Q    E E +Q   E E    Q  Q  Q  Q    E E E E Q  E +E
|-------------------|--------------------||-------------|-------------------|
|-------------------|--------------------||-------------|-------------------|
|-------------------|--9------7-(7)------||-------7-----|---------7---------|
|-------------------|--9------7-(7)------||-9-----7--7--|---9-----7--7-(7)/-|
|-------------------|--------------------||-9-----5--7--|---9-----5--7-(7)/-|
|-7-7-7-7-7-7-7-7---|----------------0-0-||-7--------5--|---7---x----5-(5)/-|


  N.C.
                                                PM
  E E E    E     E     E E E   Q  E E +Q   +E   E
|----------------------------|--------------------|
|---x-9b10-9pb10-9pb10-9-7---|--------------------|
|---x-9b11-9pb11-9pb11-9-7---|-7------------------|
|--------------------------9-|-7--9-9-(9)--(9)\---|
|----------------------------|----9-9-(9)--(9)\---|
|----------------------------|------------------0-|
|
|                                           PM--|
| E E E    E     E     E E E   Q  E E +Q    E   E
|----------------------------|--------------------|
|---x-9----9-----9b10--9-7---|--------------------|
|---x-9----9-----9b11--9-7---|-7------------------|
|--------------------------9-|-7--9-9-(9)---------|
|----------------------------|----9-9-(9)---------|
|----------------------------|--------------0---0-|


  G5            A5
                      PM
  E E Q  +Q   E E   E E Q  +Q   Q
|-----------------|----------------------|
|-----------------|----------------------|
|-----------------|----------------------|
|-5-x-5--(5)--5s7-|-7---7--(7)--7\-------|
|-5-x-5--(5)--5s7-|-7---7--(7)--7\-------|
|-3-x-3--(3)--3s5-|-5-5-5--(5)--5\-------|
|
| E E Q  +Q   E E   E E Q  +Q.     +E
|-----------------|----------------------|
|-----------------|----------------------|
|-----------------|----------------------|
|-5---5--(5)--5s7-|-----7--(7)-----(7)\--|
|-5---5--(5)--5s7-|-7-7-7--(7)-----(7)\--|
|-3-0-3--(3)--3s5-|-5-5-5--(5)-----(5)\--|


     E5           F#sus4      A5 B5
  Q   H.        E  E E E  Q    E  E
|-----0-------|---------------------|
|-----0-------|---10-----10---10-12-|
|-------------|----9------9----9-11-|
|-------------|-x-------------------|
|-------------|-x------9------------|
|-0--(0)------|---------------------|
|
| Q   H.        E  E E E  E E  E  E
|-----0-------|---------------------|
|-----0-------|---------------------|
|-----9-------|----4------4---------|
|-----9-------|----4------4----7--9-|
|-----7-------|-x--4------4----7--9-|
|-0--(0)------|-x--2---2--2----5--7-|


         N.C.
                                         |-3--|
   +Q    Q   H          Q       +Q    E  S  S S  S S  E
|--------------------|-12b14---(12)--10-10-----------10-|
|-(12)\--------------|---------------10----10s7-10p7----|
|-(11)\--------------|----------------------------------|
|--------------------|----------------------------------|
|--------------------|----------------------------------|
|--------------------|----------------------------------|
|
|   Q    E E e E E E    E    E   Q    E  E       E    E
|--------------------|----------------------------------|
|--------------------|----------------------------------|
|------------7-7-----|-----------7---------------9------|
|---9\-------7-7-9p7-|-----------7---------------9------|
|---9\---2s9---------|--7h===9--------9s11--------------|
|---7\---------------|----------------------------------|


  B5  N.C.
  ~~                    ~~~~~~~~~~~~~~~~~~~~~~~~
       |--3--| |--3--|
  Q    E E   E E E   E +Q     +H.          +E   E
|-7-------------------------|---------------------|
|-----10p7------------------|---------------------|
|------------9-9p7----------|---------------------|
|--------------------9-(9)--|-(9)----------(9)\---|
|---------------------------|---------------------|
|---------------------------|-------------------5s|
|
| Q    E   E   e   E    E E    E E Q  E  E  E   E
|---------------------------|---------------------|
|---------------------------|---------------------|
|--------------7---7--------|------7--------9-----|
|-9\-----------7---7----9p7-|------7--------9-----|
|-9\---2s==9----------------|--7h9----9s11--------|
|-7\------------------------|---------------------|


   2nd Verse
    N.C.
    PM------------|
    E E E E E E E E   Q  E E +Q.   E     3x
||------------------|--------------------||
||o-----------------|-------------------o||
||------------------|-9----7-(7)---------||
||------------------|-9----7-(7)---------||
||o-----------------|-------------------o||
||--7-7-7-7-7-7-7-7-|--------------5s====||
|
|   PM------------|
|   E E E E E E E E   Q  E E +H          3x
||------------------|--------------------||
||o-----------------|-------------------o||
||------------------|-9----7-(7)---------||
||------------------|-9----7-(7)---------||
||o-----------------|-------------------o||
||--7-7-7-7-7-7-7-7-|--------------------||


  Gtr III
                                                                         ~~~~
  Q   E    +E   H          +E   S S      S S      E  S  +E  S E  S      +S
|-----------------------|---------------------------------------------------|
|--------------10-------|-(10)-10-------10-------10-------------10b12==(10)-|
|-----9b11-(9)----------|---------9pb11----9pb11-----9--(9)-7---------------|
|-----------------------|---------------------------------------------------|
|-----------------------|---------------------------------------------------|
|-----------------------|---------------------------------------------------|
|
| Gtr II
| PM------------------|
| E E E     E   E E E E     Q            E        E +Q.          E
|-----------------------|---------------------------------------------------|
|-----------------------|---------------------------------------------------|
|-----------------------|---9---------------------7-(7)---------------------|
|-----------------------|---9---------------------7-(7)---------------------|
|-----------------------|----------------------------------------7s=========|
|-7-7-7-----7---7-7-7-7-|----------------------------------------5s=========|
|
| Gtr I
| PM------------------|
| E E E     E   E E E E     Q            E        E +H
|-----------------------|---------------------------------------------------|
|-----------------------|---------------------------------------------------|
|-----------------------|---9---------------------7-(7)---------------------|
|-----------------------|---9---------------------7-(7)---------------------|
|-----------------------|---------------------------------------------------|
|-7-7-7-----7---7-7-7-7-|---------------------------------------------------|


 ~~~~~~~~~~~~~
   +E   +E    Q   H            W
|---------------------------|------------------------|
|-(10)-(10)r\---------------|------------------------|
|---------------------------|------------------------|
|---------------------------|------------------------|
|---------------------------|------------------------|
|---------------------------|------------------------|
|
|                                   ~~~
|   E   +E    E E E  E  Q     +Q   +H         E E
|---------------------------|------------------------|
|--------------------9s=7---|-(7)--(7)---------------|
|---------------------------|------------------------|
|---------------7s9-(9)s7---|-(7)--(7)---------------|
|---9---(9)\----------------|-------------------7s===|
|---7---(7)\----------------|-------------------5s===|
|
|   PM--------------------|
|   E    E    E E E  E  E E    Q    E  E +H
|---------------------------|------------------------|
|---------------------------|------------------------|
|---------------------------|--9-------7-(7)---------|
|---------------------------|--9-------7-(7)---------|
|---------------------------|------------------------|
|---7----7----7-7-7--7--7-7-|------------------------|


  Gtr II
                               ~~~
  E +E   E E E  E  Q     +Q   +H         E E
|----------------------|---------------------|
|---------------9s=7---|-(7)--(7)------------|
|----------------------|---------------------|
|----------7s9-(9)s7---|-(7)--(7)------------|
|-9-(9)\---------------|-------------------7s|
|-7-(7)\---------------|-------------------5s|
|
| Gtr I
| PM-----------------|
| E  E   E E E  E  E E    Q    E  E +H
|----------------------|---------------------|
|----------------------|---------------------|
|----------------------|--9-------7-(7)------|
|----------------------|--9-------7-(7)------|
|----------------------|---------------------|
|-7--7---7-7-7--7--7-7-|---------------------|


                               ~~~
  E +E   E E E  E  Q     +Q   +H         E E
|----------------------|-----------------------|
|---------------9s=7---|-(7)--(7)--------------|
|----------------------|-----------------------|
|----------7s9-(9)s7---|-(7)--(7)--------------|
|-9-(9)\---------------|-------------------7s==|
|-7-(7)\---------------|-------------------5s==|
|
| PM-----------------|
| E  E   E E E  E  E E    Q    E  E +H
|----------------------|-----------------------|
|----------------------|-----------------------|
|----------------------|--9-------7-(7)--------|
|----------------------|--9-------7-(7)--------|
|----------------------|-----------------------|
|-7--7---7-7-7--7--7-7-|-----------------------|


  Gtr III
                                   ~~~~~~~~
  H          E  Q       +E     S   E.  +H.
|---------------------------|------------------------||
|--------------17b18---(17)-|-15---------------------||
|---------------------------|-----16--(16)-----------||
|---------------------------|------------------------||
|---------------------------|------------------------||
|---------------------------|------------------------||
|
| Gtr II
|                              ~~~
| E +E   E E E  E    Q        +H.                 Q
|---------------------------|------------------------||
|---------------9s===7------|-(7)--------------------||
|---------------------------|------------------------||
|----------7s9-(9)s==7------|-(7)--------------------||
|-9-(9)\--------------------|------------------------||
|-7-(7)\--------------------|------------------------||
|
| Gtr I
| PM-------------------|
| E  E   E E E  E    E   E     Q        E  E +H
|---------------------------|------------------------||
|---------------------------|------------------------||
|---------------------------|--9-----------7-(7)-----||
|---------------------------|--9-----------7-(7)-----||
|---------------------------|------------------------||
|-7--7---7-7-7--7----7---7--|------------------------||


 Chorus
  B5    D5 A5     B5    D5 A5
  W             W
|-------------|--------------------|
|-------------|--------------------|
|-------------|--------------------|
|-------------|--------------------|
|-------------|--------------------|
|-------------|--------------------|
|
| Q  Q  Q  Q    E E E E Q  Q
|-------------|--------------------|
|-------------|--------------------|
|-------7-----|---------7----------|
|-9-----7--7--|---9-----7--7-------|
|-9-----5--7--|---9-----5--7-------|
|-7--------5--|---7---x----5-------|
|
| Q  Q  Q  Q    E E E E Q  E +E
|-------------|--------------------|
|-------------|--------------------|
|-------7-----|---------7----------|
|-9-----7--7--|---9-----7--7-(7)/--|
|-9-----5--7--|---9-----5--7-(7)/--|
|-7--------5--|---7---x----5-(5)/--|


  N.C.
  Gtr II
                                                PM
  E E E    E     E     E E E   Q  E E +Q   +E   E
|----------------------------|--------------------|
|---x-9b10-9pb10-9pb10-9-7---|--------------------|
|---x-9b11-9pb11-9pb11-9-7---|-7------------------|
|--------------------------9-|-7--9-9-(9)--(9)\---|
|----------------------------|----9-9-(9)--(9)\---|
|----------------------------|------------------0-|
|
| Gtr I
|                                           PM--|
| E E E    E     E     E E E   Q  E E +Q    E   E
|----------------------------|--------------------|
|---x-9----9-----9b10--9-7---|--------------------|
|---x-9----9-----9b11--9-7---|-7------------------|
|--------------------------9-|-7--9-9-(9)---------|
|----------------------------|----9-9-(9)---------|
|----------------------------|--------------0---0-|


  G5            A5
                      PM
  E E Q  +Q   E E   E E Q  +Q   Q
|-----------------|----------------------|
|-----------------|----------------------|
|-----------------|----------------------|
|-5-x-5--(5)--5s7-|-7---7--(7)--7\-------|
|-5-x-5--(5)--5s7-|-7---7--(7)--7\-------|
|-3-x-3--(3)--3s5-|-5-5-5--(5)--5\-------|
|
| E E Q  +Q   E E   E E Q  +Q.     +E
|-----------------|----------------------|
|-----------------|----------------------|
|-----------------|----------------------|
|-5---5--(5)--5s7-|-----7--(7)-----(7)\--|
|-5---5--(5)--5s7-|-7-7-7--(7)-----(7)\--|
|-3-0-3--(3)--3s5-|-5-5-5--(5)-----(5)\--|


     E5           F#5                              A5 B5
                       PM   PM              PM   PM
  Q   H.        E  E E E  E E  E E   E  E E E  E E  E  E
|-----0-------|--------------------|---------------------||
|-----0-------|---10-----10---10-7-|---10-----10---10-12-||
|-------------|----9------9----9-6-|----9------9----9-11-||
|-------------|--------------------|---------------------||
|-------------|-x------9----9------|--------9----9-------||
|-0--(0)------|-x------------------|---------------------||
|
|                                           PM
| Q   H.        E  E Q    E E  E E   E  E E E  E E  E  E
|-----0-------|--------------------|---------------------||
|-----0-------|--------------------|---------------------||
|-----9-------|----------------2---|---------------------||
|-----9-------|----4------4----2-4-|----4------4----7--9-||
|-----7-------|----4------4------4-|----4------4----7--9-||
|-0--(0)------|----2------2------2-|----2---2--2----5--7-||


 Guitar Solo
  N.C.
  Gtr III
  ~~~~~~~~~~~~~~~~~~            ~~~~~~~~~~
  E     E E E E E E E   +Q   E  E     +Q   S  S S S
|---------------------|--------------------7-----------|
|---------------------|--------10b12-(10)----10-7------|
|-9b11==9-9-9-9-9-9-9r|=(9)-----------------------9b11-|
|---------------------|--------------------------------|
|---------------------|--------------------------------|
|---------------------|--------------------------------|
|
| Gtr II
| PM----------------|
| E     E E E E E E E    Q   E  E     +Q.       E
|---------------------|--------------------------------|
|---------------------|--------------------------------|
|---------------------|--9------7-----(7)--------------|
|---------------------|--9------7-----(7)--------------|
|---------------------|--------------------------------|
|-7-----7-7-7-7-7-7-7-|-------------------------5s=====|
|
| Gtr I
| PM----------------|
| E     E E E E E E E    Q   E  E     +H
|---------------------|--------------------------------|
|---------------------|--------------------------------|
|---------------------|--9------7-----(7)--------------|
|---------------------|--9------7-----(7)--------------|
|---------------------|--------------------------------|
|-7-----7-7-7-7-7-7-7-|--------------------------------|


  +S  S  S S S    S E +E      S S E E   H       E   E     +S   S  E
|-----7-------------------------------|-------------------------------|
|-------10-7--------------------------|------------13b15-(13)---------|
|-(9)--------9b11-9-7-(7)b7.5---------|-----------------------14------|
|-----------------------------9-7h9p7-|--------------------------12---|
|-------------------------------------|-------------------------------|
|-------------------------------------|-------------------------------|
|
|  PM-------------------------------|
|  E     E   E      E  E      E   E E   Q  E E +Q.                E
|-------------------------------------|-------------------------------|
|-------------------------------------|-------------------------------|
|-------------------------------------|-9----7-(7)--------------------|
|-------------------------------------|-9----7-(7)--------------------|
|-------------------------------------|-------------------------------|
|--7-----7---7------7--7------7---7-7-|---------------------------5s==|
|
|  PM-------------------------------|
|  E     E   E      E  E      E   E E   Q  E E +H
|-------------------------------------|-------------------------------|
|-------------------------------------|-------------------------------|
|-------------------------------------|-9----7-(7)--------------------|
|-------------------------------------|-9----7-(7)--------------------|
|-------------------------------------|-------------------------------|
|--7-----7---7------7--7------7---7-7-|-------------------------------|


               ~~~~~~~~~~
   E  E  S  S  E  +E   Q    E   E  E S  S E  Q    S S  S S
|-----------------------------|---12---12---10-------------|
|----12-12-15-12-(12)-12------|------------------10s7-10p7-|
|-14-----------------------14-|----------------------------|
|-----------------------------|----------------------------|
|-----------------------------|----------------------------|
|-----------------------------|----------------------------|
|
|  PM----------------------|
|  E  E  E     E   E   E E  E   Q    E    E +Q.        E
|-----------------------------|----------------------------|
|-----------------------------|----------------------------|
|-----------------------------|-9---------7-(7)------------|
|-----------------------------|-9---------7-(7)------------|
|-----------------------------|----------------------------|
|--7--7--7-----7---7---7-7--7-|------------------------5s==|
|
|  PM----------------------|
|  E  E  E     E   E   E E  E   Q    E    E +H
|-----------------------------|----------------------------|
|-----------------------------|----------------------------|
|-----------------------------|-9---------7-(7)------------|
|-----------------------------|-9---------7-(7)------------|
|-----------------------------|----------------------------|
|--7--7--7-----7---7---7-7--7-|----------------------------|


     ~~~~~~~
   S E.   Q    S S E +Q         +E   S S      S S      S S      E  E     S     +S  e
|-10-7----7-------------------|-------------------------------------------------------|
|-------------10p7------------|-----10-------10-------10-------10---------------------|
|------------------9-(9)b11---|-(9)----9pb11----9pb11----9pb11-----9pb11-9pb11r(9)p7--|
|-----------------------------|-------------------------------------------------------|
|-----------------------------|-------------------------------------------------------|
|-----------------------------|-------------------------------------------------------|
|
|  PM-----------------------|
|  E    E E E  E   E  E     E    Q            E        E       +Q.                 E
|-----------------------------|-------------------------------------------------------|
|-----------------------------|-------------------------------------------------------|
|-----------------------------|--9---------------------7-------(7)--------------------|
|-----------------------------|--9---------------------7-------(7)--------------------|
|-----------------------------|-------------------------------------------------------|
|--7----7-7-7--7---7--7-----7-|----------------------------------------------------5--|
|
|  PM-----------------------|
|  E    E E E  E   E  E     E    Q            E        E       +H
|-----------------------------|-------------------------------------------------------|
|-----------------------------|-------------------------------------------------------|
|-----------------------------|--9---------------------7-------(7)--------------------|
|-----------------------------|--9---------------------7-------(7)--------------------|
|-----------------------------|-------------------------------------------------------|
|--7----7-7-7--7---7--7-----7-|-------------------------------------------------------|


  G5                       A5
                     ~~~                          ~~~
  E  Q          +E   Q   E  E    e  e  E     +E   Q   E   E
|-----------------------------|-10-12-12b14r(12)-10------14b17-|
|---12pb15.5r==(12)-12-----12-|--------------------------------|
|-----------------------------|--------------------------------|
|-----------------------------|--------------------------------|
|-----------------------------|--------------------------------|
|-----------------------------|--------------------------------|
|
|                                   PM
| E  E       Q      +Q   E  E    E  E  Q         +Q   Q
|-----------------------------|--------------------------------|
|-----------------------------|--------------------------------|
|-----------------------------|--------------------------------|
|-5--x-------5------(5)--5s=7-|--7-----7---------(7)--7\-------|
|-5--x-------5------(5)--5s=7-|--7-----7---------(7)--7\-------|
|-3--x-------3------(3)--3s=5-|--5--5--5---------(5)--5\-------|
|
| E  E       Q      +Q   E  E    E  E  Q         +Q.     +E
|-----------------------------|--------------------------------|
|-----------------------------|--------------------------------|
|-----------------------------|--------------------------------|
|-5----------5------(5)--5s=7-|--------7---------(7)-----(7)\--|
|-5----------5------(5)--5s=7-|--7--7--7---------(7)-----(7)\--|
|-3--0-------3------(3)--3s=5-|--5--5--5---------(5)-----(5)\--|


        E5                                    F#sus4                 A5B5
   +Q    e   e  S      +S   +E   +S   S E   E  Q.         +E    Q.
|-(14)--14--12----------------------------|---12b14======(12)r-12b14------|
|--------------15b19==(15)r(15)-(15)p12---|-------------------------------|
|-----------------------------------------|-------------------------------|
|-----------------------------------------|-------------------------------|
|-----------------------------------------|-------------------------------|
|-----------------------------------------|-------------------------------|
|
|   Q    H.                                 E  E     E E   E    E    E E
|--------0--------------------------------|-------------------------------|
|--------0--------------------------------|-------------------------------|
|-----------------------------------------|----4-----------4--------------|
|-----------------------------------------|----4-----------4---------7-9--|
|-----------------------------------------|-x--4-----------4---------7-9--|
|---0---(0)-------------------------------|-x--2-------2---2---------5-7--|
|
|   Q    H.                                 E  E     E E   E    E    E E
|--------0--------------------------------|-------------------------------|
|--------0--------------------------------|-------------------------------|
|--------9--------------------------------|----4-----------4--------------|
|--------9--------------------------------|----4-----------4---------7-9--|
|--------7--------------------------------|-x--4-----------4---------7-9--|
|---0---(0)-------------------------------|-x--2-------2---2---------5-7--|


  B5          N.C.
   E     S  S  +H.             +W
|-12b14-10------------------|-------------------|
|----------12-(12)----------|-(12)--------------|
|---------------------------|-------------------|
|---------------------------|-------------------|
|---------------------------|-------------------|
|---------------------------|-------------------|
|
|  Q            Q   H           W
|---------------------------|-------------------|
|---------------------------|-------------------|
|---------------------------|-------------------|
|--9\-----------------------|-------------------|
|--9\-----------------------|-------------------|
|--7\-----------------------|-------------------|
|
|  Q            E E e E E E     E E Q  E  E E E
|---------------------------|-------------------|
|---------------------------|-------------------|
|-------------------7-7-----|-------7-------9---|
|--9\---------------7-7-9p7-|-------7-------9---|
|--9\-----------2s9---------|---7h9----9s11-----|
|--7\-----------------------|-------------------|


  B5    N.C.
   +Q    +Q     Q   E E      +E E    E    E    E    +E  Q
|--------------------------|-------------------------------||
|-(12)--(12)\--------------|-------------------------------||
|---------------------9b11-|-(9)9b11-9b11-9b11-9b11r(9)-7--||
|--------------------------|-------------------------------||
|--------------------------|-------------------------------||
|--------------------------|-------------------------------||
|
|   Q     Q     H             E E    Q         E     E  Q
|--------------------------|-------------------------------||
|--------------------------|-------------------------------||
|--------------------------|---------7------------------7--||
|---9\---------------------|---------7------------------7--||
|---9\---------------------|--7h9--------------9h===11-----||
|---7\---------------------|-------------------------------||
|
|   Q     E   E e E E E       E E    Q         E     E  Q
|--------------------------|-------------------------------||
|--------------------------|-------------------------------||
|---------------7-7--------|---------7------------------7--||
|---9\----------7-7-9p7----|---------7------------------7--||
|---9\----2s==9------------|--7h9--------------9h===11-----||
|---7\---------------------|-------------------------------||


   3rd Verse
    N.C.
    W                 W               3x
||------------------|-----------------||
||o-----------------|----------------o||
||------------------|-----------------||
||------------------|-----------------||
||o-----------------|----------------o||
||------------------|-----------------||
|
|   PM------------|
|   E E E E E E E E   Q  E E +Q.   E  3x
||------------------|-----------------||
||o-----------------|----------------o||
||------------------|-9----7-(7)------||
||------------------|-9----7-(7)------||
||o-----------------|----------------o||
||--7-7-7-7-7-7-7-7-|--------------5s=||
|
|   PM------------|
|   E E E E E E E E   Q  E E +H       3x
||------------------|-----------------||
||o-----------------|----------------o||
||------------------|-9----7-(7)------||
||------------------|-9----7-(7)------||
||o-----------------|----------------o||
||--7-7-7-7-7-7-7-7-|-----------------||


                                         ~~~~~~
  E Q.       +Q..       T T   Q  +E      E +E  E  Q
|---------------------------|--------------------------|
|---9b10-----(9)--------7p5s|=3--(3)b3.5---------------|
|---------------------------|------------4-(4)-4\------|
|---------------------------|--------------------------|
|---------------------------|--------------------------|
|---------------------------|--------------------------|
|
| PM------------------|
| E E    E E  E   E E E       Q   E      E +Q.      E
|---------------------------|--------------------------|
|---------------------------|--------------------------|
|---------------------------|-9----------7-(7)---------|
|---------------------------|-9----------7-(7)---------|
|---------------------------|-----------------------7s=|
|-7-7----7-7--7---7-7-7-----|-----------------------5s=|
|
| PM------------------|
| E E    E E  E   E E E       Q   E      E +H
|---------------------------|--------------------------|
|---------------------------|--------------------------|
|---------------------------|-9----------7-(7)---------|
|---------------------------|-9----------7-(7)---------|
|---------------------------|--------------------------|
|-7-7----7-7--7---7-7-7-----|--------------------------|


  W                       W
|----------------------|---------------------|
|----------------------|---------------------|
|----------------------|---------------------|
|----------------------|---------------------|
|----------------------|---------------------|
|----------------------|---------------------|
|
|                              ~~~
| E +E   E E E  E  Q     +Q   +H         E E
|----------------------|---------------------|
|---------------9s=7---|-(7)--(7)------------|
|----------------------|---------------------|
|----------7s9-(9)s7---|-(7)--(7)------------|
|-9-(9)\---------------|-------------------7s|
|-7-(7)\---------------|-------------------5s|
|
| PM-----------------|
| E  E   E E E  E  E E    Q    E  E +H
|----------------------|---------------------|
|----------------------|---------------------|
|----------------------|--9-------7-(7)------|
|----------------------|--9-------7-(7)------|
|----------------------|---------------------|
|-7--7---7-7-7--7--7-7-|---------------------|


                               ~~~~~~~~~~~~
  Q      E  E     +E   S   S  +Q       +H.             Q
|----------12b14-(12)-10------------|-----------------------|
|-------------------------12-(12)---|-(12)------------------|
|-----------------------------------|-----------------------|
|-----------------------------------|-----------------------|
|-----------------------------------|-----------------------|
|-----------------------------------|-----------------------|
|
|                                            ~~~
| E +E   E  E      E   E       Q       +Q   +H         E E
|-----------------------------------|-----------------------|
|----------------------9s======7----|--(7)--(7)-------------|
|-----------------------------------|-----------------------|
|-----------7s=====9--(9)s=====7----|--(7)--(7)-------------|
|-9-(9)\----------------------------|--------------------7s=|
|-7-(7)\----------------------------|--------------------5s=|
|
| PM------------------------------|
| E  E   E  E      E   E       E  E     Q    E  E +H
|-----------------------------------|-----------------------|
|-----------------------------------|-----------------------|
|-----------------------------------|---9-------7-(7)-------|
|-----------------------------------|---9-------7-(7)-------|
|-----------------------------------|-----------------------|
|-7--7---7--7------7---7-------7--7-|-----------------------|


  E  E     E      E      E      E      E        +E
|---------------------------------------------------|
|---12b15-12pb15-12pb15-12pb15-12pb15-12pb15.5r(12)-|
|---------------------------------------------------|
|---------------------------------------------------|
|---------------------------------------------------|
|---------------------------------------------------|
|
| E +E     E      E      E      E      Q
|---------------------------------------------------|
|-------------------------------9s=====7------------|
|---------------------------------------------------|
|-----------------7s=====9-----(9)s====7------------|
|-9-(9)\--------------------------------------------|
|-7-(7)\--------------------------------------------|
|
| PM-------------------------------------------|
| E  E     E      E      E      E      E         E
|---------------------------------------------------|
|---------------------------------------------------|
|---------------------------------------------------|
|---------------------------------------------------|
|---------------------------------------------------|
|-7--7-----7------7------7------7------7---------7--|


                                    Chorus
                        A5           B5
   E   E  E   E  E  Q   +S  +S       W             Wx6
|---------------------------------||-------------|--------|
|-10h=12-12p=10-------------------||-------------|--------|
|---------------\9--7---(7)-(7)b8-||-------------|--------|
|---------------------------------||-------------|--------|
|---------------------------------||-------------|--------|
|---------------------------------||-------------|--------|
|
|         ~~~
| +Q     +H           E  E           Q   Q  H      Wx6
|---------------------------------||-------------|--------|
|-(7)----(7)----------------------||-------------|--------|
|---------------------------------||-------------|--------|
|-(7)----(7)----------------------||-9\----------|--------|
|------------------------7--------||-9\----------|--------|
|------------------------5--------||-7\----------|--------|
|
|  Q      E   E +H                   Q   Q  H      Wx6
|---------------------------------||-------------|--------|
|---------------------------------||-------------|--------|
|--9----------7-(7)---------------||-------------|--------|
|--9----------7-(7)---------------||-9\----------|--------|
|---------------------------------||-9\----------|--------|
|---------------------------------||-7\----------|--------|


  N.C.                     B5         D5 A5
                            ~~~~~~~~~~~~~~~~~
  Q  E E  E    +S  S E E    W
|------------------------|------------------|
|----x-x-10--------------|-10b12============|
|----x-x--9b11r(9)p7-----|------------------|
|--------------------9---|------------------|
|------------------------|------------------|
|------------------------|------------------|
|
| W                         Q      Q  Q  Q
|------------------------|------------------|
|------------------------|------------------|
|------------------------|------------7-----|
|------------------------|--9---------7--7--|
|------------------------|--9---------5--7--|
|------------------------|--7------------5--|
|
| W                         Q      Q  Q  Q
|------------------------|------------------|
|------------------------|------------------|
|------------------------|------------7-----|
|------------------------|--9---------7--7--|
|------------------------|--9---------5--7--|
|------------------------|--7------------5--|


        B5    D5     A5           N.C.
 ~~~~~~~                              ~~~~
              |-3--| |---3----|
   +H         E  E E E E      E   Q   H.
|-------------7-----------------|------------------------------|
|-(10)r---------10-7---7--------|------------------------------|
|--------------------9----------|-7----------------------------|
|-----------------------------9-|-----9------------------------|
|-------------------------------|------------------------------|
|-------------------------------|------------------------------|
|
|   E   E E E Q      Q            E E E    E     E     E E E
|-------------------------------|------------------------------|
|-------------------------------|---x-9b10-9pb10-9pb10-9-7-----|
|-------------7-----------------|---x-9b11-9pb11-9pb11-9-7-----|
|-------9-----7------7----------|--------------------------9---|
|-------9-----5------7----------|------------------------------|
|-------7---x--------5----------|------------------------------|
|
|   E   E E E Q      E   +E       E E E    E     E     E E E
|-------------------------------|------------------------------|
|-------------------------------|---x-9----9-----9b10--9-7-----|
|-------------7-----------------|---x-9----9-----9b11--9-7-----|
|-------9-----7------7---(7)/---|--------------------------9---|
|-------9-----5------7---(7)/---|------------------------------|
|-------7---x--------5---(5)/---|------------------------------|


                              G5               A5
   ~~~~~~~~~~~~~                ~~~~
  +H       +Q     E    E       +H.           E  E       +H.           E   E
|---------------------------|------------------------|--------------------------|
|---------------------10b12-|-(10)-------------12b14-|-(12)--------------15b17==|
|---------------------------|------------------------|--------------------------|
|-(9)------(9)\-------------|------------------------|--------------------------|
|---------------------------|------------------------|--------------------------|
|---------------------------|------------------------|--------------------------|
|
|                      PM                                   PM
|  Q   E E +Q    +E    E        E  E Q  +Q   E  E        E  E Q  +Q   Q
|---------------------------|------------------------|--------------------------|
|---------------------------|------------------------|--------------------------|
|--7------------------------|------------------------|--------------------------|
|--7---9-9-(9)---(9)\-------|---5--x-5--(5)--5s=7----|---7----7--(7)--7\--------|
|------9-9-(9)---(9)\-------|---5--x-5--(5)--5s=7----|---7----7--(7)--7\--------|
|----------------------0----|---3--x-3--(3)--3s=5----|---5--5-5--(5)--5\--------|
|
|                 PM--|
|  Q   E E +Q     E    E        E  E Q  +Q   E  E        E  E Q  +Q.     +E
|---------------------------|------------------------|--------------------------|
|---------------------------|------------------------|--------------------------|
|--7------------------------|------------------------|--------------------------|
|--7---9-9-(9)--------------|---5----5--(5)--5s=7----|--------7--(7)-----(7)\---|
|------9-9-(9)--------------|---5----5--(5)--5s=7----|---7--7-7--(7)-----(7)\---|
|-----------------0----0----|---3--0-3--(3)--3s=5----|---5--5-5--(5)-----(5)\---|


         E5                      F#sus4       A5 B5
   +H         Q   Q         +Q       Q    Q    Q
|------------------------|----------17---17---17------||
|-(15)r----------17b19===|=(17)r----------------------||
|------------------------|----------------------------||
|------------------------|----------------------------||
|------------------------|----------------------------||
|------------------------|----------------------------||
|
|   Q     H.                 E    E  E E  Q    E  E
|---------0--------------|----------------------------||
|---------0--------------|-------10------10---10-12---||
|------------------------|--------9-------9----9-11---||
|------------------------|---x------------------------||
|------------------------|---x---------9--------------||
|---0----(0)-------------|----------------------------||
|
|   Q     H.                 E    E  E E  E E  E  E
|---------0--------------|----------------------------||
|---------0--------------|----------------------------||
|---------9--------------|--------4-------4-----------||
|---------9--------------|--------4-------4----7--9---||
|---------7--------------|---x----4-------4----7--9---||
|---0----(0)-------------|---x----2----2--2----5--7---||


 Outro
  B5     N.C.
  Gtr III
   Q      Q       Q       Q         E     +S   S  H.
|-17-----17------17------17------|-----------------------------|
|-17b19--17b19---17b19---17b19---|-17b19r(17)p15---------------|
|--------------------------------|---------------16------------|
|--------------------------------|-----------------------------|
|--------------------------------|-----------------------------|
|--------------------------------|-----------------------------|
|
| Gtrs I, II
|  Q      E    E  e    E  E    E    E      E      Q   E  E E E
|--------------------------------|-----------------------------|
|--------------------------------|-----------------------------|
|-----------------7----7---------|----------------7--------9---|
|--9\-------------7----7--9p===7-|----------------7--------9---|
|--9\-----2s===9-----------------|--7h=====9----------9s11-----|
|--7\----------------------------|-----------------------------|


  B5        N.C.
   +E   +E   E    E  E  E     E      E        E      E      E      E     E  Q.
|----------------------------17-----17-----|-17-----17-----17-----17-------17b19======|
|----------------------17b19-17pb19-17pb19-|-17pb19-17pb19-17pb19-17pb19--------------|
|-(16)-(16)s(4)s(16)-----------------------|------------------------------------------|
|------------------------------------------|------------------------------------------|
|------------------------------------------|------------------------------------------|
|------------------------------------------|------------------------------------------|
|
|   Q        E    E  e  E     E      E        E      E      Q            E  E     E E
|------------------------------------------|------------------------------------------|
|------------------------------------------|------------------------------------------|
|--------------------7--7------------------|----------------7---------------------9---|
|---9\---------------7--7-----9p=====7-----|----------------7---------------------9---|
|---9\-------2s===9------------------------|--7h=====9-------------------9s11---------|
|---7\-------------------------------------|------------------------------------------|


  B5          N.C.
                                                                   ~~~
   +E    Q       +S   S  E      +E   E      +E     E      +E   Q   Q     E  E
|-(17)r-17b19r==(17)p14-17pb19r(17)-17pb19r(17)-|-17pb19r(17)--------------------|
|-----------------------------------------------|-------------15--------15-17b19-|
|-----------------------------------------------|-----------------16-------------|
|-----------------------------------------------|--------------------------------|
|-----------------------------------------------|--------------------------------|
|-----------------------------------------------|--------------------------------|
|
|   Q         E   E      e       E   E       E     E       E   Q   E  E  E  E
|-----------------------------------------------|--------------------------------|
|-----------------------------------------------|--------------------------------|
|------------------------7-------7--------------|--------------7---------9-------|
|---9\-------------------7-------7---9p======7--|--------------7---------9-------|
|---9\--------2s==9-----------------------------|--7h======9-------9s11----------|
|---7\------------------------------------------|--------------------------------|


                                           F#5
   +E  E  Q        Q        Q         +H          Q    Q
|-----17-17-------17-------17------|-(17)--------17------------|
|-(17)---17b19----17b19----17b19===|=(17)r------------17b19====|
|----------------------------------|---------------------------|
|----------------------------------|---------------------------|
|----------------------------------|---------------------------|
|----------------------------------|---------------------------|
|
|                                              PM
|   E  E  E     E  E     E  Q          E   E E E  E E  E     E
|----------------------------------|---------------------------|
|----------------------------------|---------------------------|
|--------11-------14----14-11\-----|-------------------2-------|
|--------11-------14----14-11\-----|-------4------4----2-----4-|
|--11s13-------13------------------|-------4------4----------4-|
|----------------------------------|-------2---2--2----------2-|


   +E   +E   E  e  E      +E   E  +E
|--------------17-17pb19r(17)----------|
|-(17)r(17)-15----------------15-(15)\-|
|--------------------------------------|
|--------------------------------------|
|--------------------------------------|
|--------------------------------------|
|
|               PM
|   E    E   E  E  E       E   E   E
|--------------------------------------|
|--------------------------------------|
|------------------------------2-------|
|--------4---------4-----------2---4---|
|--------4---------4---------------4---|
|--------2------2--2---------------2---|


                       A5/B B5
  E E E S  S  E  E      +E   +E        +H.      Q
|---5-7---10------------------------|---------------*|
|---5-7-7----10-10-----(10)-(10)----|-(10)----------*|
|-7-----------9--9b11===(9)r=(9)b11-|--(9)----------*|
|-----------------------------------|---------------*|
|-----------------------------------|---------------*|
|-----------------------------------|---------------*|
|
|       PM
| E E E E     E  E       E    E        +H.      Q
|-----------------------------------|---------------*|
|-----------------------------------|---------------*|
|------------------------2----4-----|--(4)------4/--*|
|---4---------4----------2----4-----|--(4)------4/--*|
|---4---------4----------2----2-----|--(2)------2/--*|
|---2---2-----2---------------------|---------------*|


Duration Legend
---------------
W - whole; H - half; Q - quarter; E - 8th; S - 16th; T - 32nd; X - 64th; a - acciaccatura
+ - note tied to previous; . - note dotted; .. - note double dotted
Uncapitalized letters represent notes that are staccato (1/2 duration)
Irregular groupings are notated above the duration line
Duration letters will always appear directly above the note/fret number it represents the
duration for.  Duration letters with no fret number below them represent rests.  Multi-
bar rests are notated in the form Wxn, where n is the number of bars to rest for.  Low
melody durations appear below the staff

Tablature Legend
----------------
 h   - hammer-on
 p   - pull-off
 b   - bend
 pb  - pre-bend
 r   - bend release (if no number after the r, then release immediately)
 /\  - slide into or out of (from/to "nowhere")
 s   - legato slide
 S   - shift slide
  - natural harmonic
[n]  - artificial harmonic
n(n) - tapped harmonic
 ~   - vibrato
 tr  - trill
 T   - tap
 TP  - trem. picking
 PM  - palm muting
\n/  - tremolo bar dip; n = amount to dip
 \n  - tremolo bar down
 n/  - tremolo bar up
/n\  - tremolo bar inverted dip
 =   - hold bend; also acts as connecting device for hammers/pulls
 <>  - volume swell (louder/softer)
 x   - on rhythm slash represents muted slash
 o   - on rhythm slash represents single note slash

Misc Legend
-----------
 |  - bar
||  - double bar
||o - repeat start
o|| - repeat end
*|  - double bar (ending)
 :  - bar (freetime)
 $  - Segno
 &  - Coda
Tempo markers -  = BPM(8/16=s8/s16), where s8 = swing 8ths, s16 = swing 16ths

            
            
Suggest correction
Creating personal tab
Creating personal tab
You can edit any tab online and save it as your Personal.

You can edit, replace or remove any tab part or add personal notes – all changes will be seen only by you.

Personal tabs can be accessed anytime from any device, even offline.
Learn more »
Give kudos to tab author, rate the tab!
1 2 3 4 5
comments
print report bad tab
guest
Wanna post a correction for this tab? Suggest correction