Oops, an error
Loading. Please wait.

Bad Religion Tab

by GP
38 views 1 this week
no commentswrite comment
1 2 3 4 5
3 more votes to show rating
add to favorites
launch autoscroll
font size
0
reset
how to read this tab
guitar tuner
Autoscroll
slow
fast
+/-
esc
set tempo
stop
Help us to improve Ultimate-Guitar.com Take our survey!
×
INTRO:
E|------------------------------------------------------------------------|
B|------------------------------------------------------------------------|
G|----------------------------5--------5--------5--------5----------------|
D|-3--------3--------3--------5--------5--------5--------5--------3-------|
A|-3--------3--------3--------3-333333-3-333333-3-333333-3-333333-3-------|
E|-1-111111-1-111111-1-111111-------------------------------------1-11111-|
     |-pm-|   |-pm-|   |-pm-|   |-pm-|   |-pm-|   |-pm-|  |-pm-|    |-pm-|


F5
La pereza vuelve al hombre animal,
                              C5
la vagancia es una gran calamidad, trabajar aumenta la dignidad,
                                  F5
pero nunca he visto a un cura trabajar.
F5
Comer y beber es buscar placer.
                              C5
Recomiendo hacerlo con moderación. Excelente el vino del sacristán,
                                   F5
tiene un cerdo en la barriga, monseñor.

CORO:
F5            A#5
Dame, dame una hostia.
C5             F5
Dame, por pecador.
F5            A#5
Dame, dame una hostia.
C5            F5
Dame tu bendición.

F5
Condenar el sexo en la juventud
                                C5
es a causa de la envidia que tenéis, como se os exige que no folléis
                               F5
no queréis dejar follar a los demás.
F5
Presumís de ejemplo de castidad
                                 C5
y váis todos más salidos que el copón, como sabe más un menor de edad
                           F5
la lujuria reprimida es la peor.

E|----------------------------------------------------------------------------|
B|----------------------------------------------------------------------------|
G|------------------------------3-2-0---0-----9-7-5----9-7-5----55-33-22-00---|
D|-3--------3--------3--------3-------3-------------------------------------3-|
A|-3--------3--------3----------------------8--------8-------8----------------|
E|-1-111111-1-111111-1-111111-------------------------------------------------|

CORO:
F5            A#5
Dame, dame una hostia.
C5             F5
Dame, por pecador.
F5            A#5
Dame, dame una hostia.
C5            F5
Dame tu bendición.


A5        D5     A#5       F5
Malditos payasos fuera de lugar,
A5       D5      A#5       F5
no nos hacéis gracia, ¡mala religión!
A5       D5     A#5     F5
En el infierno te esperaré,
A5        D5     C5
juntos arderemos en la hoguera, en la hoguera de la inquisición.

E|----------------------------------------------------------------------------|
B|----------------------------------------------------------------------------|
G|------------------------------3-2-0---0-----9-7-5----9-7-5----55-33-22-00---|
D|-3--------3--------3--------3-------3-------------------------------------3-|
A|-3--------3--------3----------------------8--------8-------8----------------|
E|-1-111111-1-111111-1-111111-------------------------------------------------|
F5
La riqueza es fruto de la maldad,
                                C5
como todas las riquezas que tenéis. La avaricia siempre nos pide más
                               F5
invertir en bolsa por la santidad.
F5
La soberbia es un pecado mortal,
                                   C5
pero siempre estáis del lado del poder. Provenís del culo del creador
                                F5
provenís de alguna mierda que cagó.

CORO:
F5            A#5
Dame, dame una hostia.
C5             F5
Dame, por pecador.
F5            A#5
Dame, dame una hostia.
C5            F5
Dame tu bendición.

F5
Me voy a cagar en vuestra moral
                              C5
disculpadme mi lenguaje coloquial me voy a cagar en la religión
         A#5 A5  G5 F5
y además me cago en dios

...y en tu abuela¡¡¡
E|------------------------------------|
B|------------------------------------|
G|------------------------------------|
D|------------------------------------|
A|-8-7-5-3-1-0------8-7-5-3-1-0-------|
E|-------------3-1--------------3-1---|

ACORDES:
E|---X---X---X---X---X---X---|
B|---X---X---X---X---X---X---|
G|---X---X---X---3---5---7---|
D|---3---5---7---3---5---7---|
A|---3---5---7---1---3---5---|
E|---1---3---5---X---X---X---|
    F5  G5  A5  A#5  C5  D5
Suggest correction
Give kudos to tab author, rate the tab!
1 2 3 4 5
comments
print report bad tab
guest
You may want to rate the tab now too:
select rating
Wanna post a correction for this tab? Suggest correction