Oops, an error
Loading. Please wait.

Cara A Cara Bass

by GP
18 views 1 this week
no commentswrite comment
1 2 3 4 5
3 more votes to show rating
add to favorites
launch autoscroll
font size
0
reset
guitar tuner
×
Best way to learn
"Cara A Cara"
Autoscroll
slow
fast
+/-
esc
set tempo
stop
--------------------------------------
----4-2-0----5-3-2----4-2-0----7-5-4--
--2--------3--------2--------5-------- x3
--------------------------------------

Con ezta vida ke eztáz...
--------------------------------------
----4-2-0----5-3-2----4-2-0----7-5-4--
--2--------3--------2--------5-------- x2
--------------------------------------

....maaal....
----------------------------------------
----------------------------------------
--2-2-2-2--3-3-3-3--2-2-2-2--5-5-5-5----  x2
----------------------------------------

--------------------------------------
----4-2-0----5-3-2----4-2-0----7-5-4--
--2--------3--------2--------5-------- x2
--------------------------------------

Tu no haz podido dormir...
--------------------------------------
----4-2-0----5-3-2----4-2-0----7-5-4--
--2--------3--------2--------5-------- x2
--------------------------------------

...lograaar....
----------------------------------------
----------------------------------------
--2-2-2-2--3-3-3-3--2-2-2-2--5-5-5-5----  x2
----------------------------------------

Zi loz kierez venxer...
--------------------
--------------------
--7-7-7-7-?8-8-8-8--  x4
--------------------

----------------------------------------
----------------------------------------
--2-2-2-2--3-3-3-3--2-2-2-2--5-5-5-5----  x2
----------------------------------------

Cuentoz de mixeria...
--------------------------------------
--------------------------------------
-----------------------------5-55-55--  x2
--7-77-77--8-88-88--7-77-77------------

---------------------------------------
---------------------------------------
-----------------------------55555555--  x2
--77777777-88888888-77777777-----------

El terrorizmo ke azota...
--------------------------------------
--------------------------------------
-----------------------------5-55-55--  x2
--7-77-77--8-88-88--7-77-77-----------

---------------------------------------
---------------------------------------
-----------------------------55555555--  x2
--77777777-88888888-77777777-----------

Zi loz kierez venxer...
--------------------
--------------------
--7-7-7-7-?8-8-8-8--  x4
--------------------

----------------------------------------
----------------------------------------
--2-2-2-2--3-3-3-3--2-2-2-2--5-5-5-5----
----------------------------------------

-------------------------------------------
-------------------------------------------
--2-2-2-2--3-3-3-3--2-2-2-2--5-5-5-5--~2~--
-------------------------------------------

Eztá canxión eztá breve de sakar
cojan bien loz tiempoz y lizto.
Suggest correction
Give kudos to tab author, rate the tab!
1 2 3 4 5
comments
print report bad tab
guest
You may want to rate the tab now too:
select rating
Wanna post a correction for this tab? Suggest correction