Oops, an error
Loading. Please wait.

Ceremonia Tab

by GP
45 views 1 this week
no commentswrite comment
1 2 3 4 5
3 more votes to show rating
add to favorites
launch autoscroll
font size
0
reset
how to read this tab
guitar tuner
Autoscroll
slow
fast
+/-
esc
set tempo
stop
Help us to improve Ultimate-Guitar.com Take our survey!
×
Parte a)
G
en vísperas de irse a combatir
                                D
se pregunta que demonios hace allí
G                                                              
no saber por quien habría de morir
                               D
la familia la patria o la sociedad

parte b)
D                   A
la familia no esta allí
D                  A
cual patria es su país
D                  A
y la sociedad ni hablar

solo desea que la bala sea 
            G
la de su fusil

parte a)
protegerle los bienes a la ambición
con coraje defender la corrupción
cuan vulgar parece combatir así
donde ya la vida no tiene valor

parte b)
le embarga la frustración
la bala que le mato
ha negado a su fusil
el valor que el suicidio
da a la vida se esfumo

|----------------------------------4-------------------------------|
 ···············1···············  ················2················
|-------------------------------||---------------------------------|
|-------------------------------||-7v---7--8--7--5v--5--5--7--5----|
|-7/6---7v---7---7/6---7v---7---||-------------------------------7-|
|--------------9--------------9-||---------------------------------|
|-----9----9---------9----9-----||---------------------------------|
|-------------------------------||---------------------------------|

 ·····1·····  ··················3····················
|-----------||---------------------------------------|
|-----------||-7v---7--8--7--5--7--8--5---7--5-------|
|-----------||--------------------------8-------6-4v-|
|-----------||---------------------------------------|
|-----------||---------------------------------------|
|-----------||---------------------------------------|

F#
en medio de medallas al valor
D                 A
entre pésames que van y vienen
F#              
las condolidas patria y sociedad
D                   A
lloran al héroe que murió por ellas
F#                 D                  A    
una ceremonia mas tan solo otro vacío por llenar
F#                          
tras su frustración este epitafio
D                        A                        
antes en una alcantarilla que en un pedestal.


  ·····4·····          ·······3······· 
|-------------|       |---------------|
|-------------|       |---------------|
|-------------|       |---------------|
|-------------|x3     |---------------|
|-------------|       |---------------|
|-------------|       |---------------|

de colombia y carlos para toda latinoamerica
Suggest correction
Give kudos to tab author, rate the tab!
1 2 3 4 5
comments
print report bad tab
guest
You may want to rate the tab now too:
select rating
Wanna post a correction for this tab? Suggest correction