Oops, an error
Loading. Please wait.

El Desafio Bass Tab

47 views 1 this week
no commentswrite comment
1 2 3 4 5
3 more votes to show rating
add to favorites
launch autoscroll
font size
0
reset
guitar tuner
Autoscroll
slow
fast
+/-
esc
set tempo
stop
Help us to improve Ultimate-Guitar.com Take our survey!
×
Mientraz la guitarra haxe arpegioz va ezto:
-------------------------
-------------------------
------4--------4---------
---------7--5------------

Dezpuez de los arpegioz
-------------------------------------------------------
------------------------------------------7-6----------
---44444-6-7-------7-6-4-------------4444-----7-6------
-------------77777-------7-5555-7777-------------------

-------------------------------------------------------
------------------------------------------7-6----------
---44444-6-7-------7-6-4-------------4444-----7-6--4---
-------------77777-------7-5555-7777-------------------

y no enkuentraz ke camino tomar...
----------------------------------
-------------------7-6------------
--77777-66666-4444-----7-6--------
----------------------------------

----------------------------------
----------------------------------
-4444-77777-66666-4444-4----------
-------------------------7--------

------------------------------------------------------
----------------------------------------------7-6-----
-----------------------------------------4444-----7-6-
-5555-4444-5555-4444-5555-4444-5555-7777--------------

-------------------------------------------------------
------------------------------------------7-6----------
---44444-6-7-------7-6-4-------------4444-----7-6------
-------------77777-------7-5555-7777-------------------

-------------------------------------------------------
------------------------------------------7-6----------
---44444-6-7-------7-6-4-------------4444-----7-6--4---
-------------77777-------7-5555-7777-------------------

La sabiduría???
--------------------------------------------
---------------------------------7-6--------
----44444444----------------4444-----7-6----
-------------5555555-777777-----------------

A mi parexer, ezta ez la mejor kanxion de GP.
Zoyenxela, eztá una chimba...
Suggest correction
Give kudos to tab author, rate the tab!
1 2 3 4 5
comments
print report bad tab
guest
You may want to rate the tab now too:
select rating
Wanna post a correction for this tab? Suggest correction