Oops, an error
Loading. Please wait.

La Cosecha Chords

by GP
35 views 3 this week
no commentswrite comment
1 2 3 4 5
3 more votes to show rating
add to favorites
×
Save as Personal and add changes to this tab that will be seen only by you. Learn more ›
×
You can save this tab as Personal to edit and correct it or add notes. All changes will be seen only by you. Learn more »
save as personal
new!
launch autoscroll
font size
0
reset
transpose
0
reset
display chords
guitar tuner
Autoscroll
slow
fast
+/-
esc
set tempo
stop
Strumming
There is no strumming pattern for this song yet. and get +5 IQ
D  A
D  A
D  A  G  C-Em

   A       F#          G           C-Em
TU MUSICA MI HERMANO NO LA AGUANTO
A          F#       G                C-Em
EL VOLUMEN ME DESQUICIA ME DESESPERA
        A   F#              G           C-Em
NO HACES MÁS QUE PROTESTAR Y PROTESTAR
A    D               A         D       G   C-Em
POR ESO TE CONDENO, POR ESO TE EXILIO

SI YO SIENTO TU RECHAZO Y NEGATIVA
TUS EXILIOS, TUS DESPRECIOS, TU INDIRECTA
CON DOLOR, CON RABIA Y CON VERGÜENZA
Y NO ME CONDENO, PERO ME AUTOEXILIO

coro
C    Dm    Em       G
EXILIADO  COMO SIEMPRE
C    Dm     Em              G 
EXILIADO  PORQUE NO ME ENTIENDEN
C      Dm         Em                  G
RECHAZADO POR NO VESTIR  POR NO PENSAR IGUAL
C        Dm       Em          D                        A
CONDENADO  A VIVIR MUY CERCA DE TI
D   A   
D   A  G  C-Em

NO HAY LEY NI HUMANA NI DIVINA
QUE ME PROHIBA CAGARTE A GRITOS
EN ESTA SOCIEDAD DE MALA MADRE
QUE NO REPARA EN PISOTEAR A LOS DEMÁS

Repite coro

Y AHORA QUE HARÁS 
A-------2--5------------------/
E----3----------3-------------/
NO TE VAS A REIR
D-------2--5-----------------/
A---3---------3--------------/
Y AHORA QUE HARÁS  COMO VAS A ESCAPAR  SI NO PUEDES REÍR  TAMPOCO VAS A LLORAR  
                       D --------------------------------------------------------------------------4------7------4--------------------------/
                       A -----------2------5------2----------------4------7------4-------5---------------------------5----3---2----------/
                       E ----3-------------------------------5-----------------------------------------------------------------------5---3--/ 
AHORA ESTOY ENOJADO
A-------2--5------------------/
E----3----------3-------------/
VOY POR TI SOCIEDAD
D-------2--5-----------------/
A---3---------3--------------/
ME VAS A VER ROMPER Y UN POCO ALBOROTAR Y ESTA PASTA DE HOMBRE  TE VA A MATAR!
                          D --------------------------------------------------------------------------4------7------4--------------------------/
                          A -----------2------5------2----------------4------7------4-------5--------------------------5----3---2-----------/
                          E ----3-------------------------------5-----------------------------------------------------------------------5---3--/
Suggest correction
Give kudos to tab author, rate the tab!
1 2 3 4 5
comments
print report bad tab
guest
Wanna post a correction for this tab? Suggest correction