Oops, an error
Loading. Please wait.

Mata Un Nazi Tab

by GP
179 views 6 this week
no commentswrite comment
1 2 3 4 5
3 more votes to show rating
add to favorites
launch autoscroll
font size
0
reset
how to read this tab
guitar tuner
Autoscroll
slow
fast
+/-
esc
set tempo
stop
bueno aqui les traigo una cancion q me gusta mucho :P
si no entienden algo me agregan yo les explico
eyessettokill99@


e---------------------------------
B---------------------------------
G---------------------------------
D---------2---3-2-----------------
A---0-3-0---0-----3-2-5-----------
E---------------------------------

e---------------------------------
B---------------------------------
G---------------------------------
D---------2---3-2-----------------
A---0-3-0---0-----3-2-0-5-3-2-----
E---------------------------------


Jovenes luchando por poder

Guiados como zombies por su rey

Hitler quiere el mundo dominar

Crimen y matanza por doquier

Los hornos se prendieron otra vez

Combustible humano para arder

Victimas del hambre en la vejez

Hitler fue su verdugo y su juez

e-----------------------------
B-----------------------------
G-----------------------------
D-----------------------------
A---0-3-0-7-0-8-7-5-----------
E-----------------------------

e-----------------------------
B-----------------------------
G-----------------------------
D-----------------------------
A---0-3-0-7-0-8-7-10----------
E-----------------------------


e---------------------------------
B---------------------------------
G---------------------------------
D---------2---3-2-----------------
A---0-3-0---0-----3-2-5-----------
E---------------------------------

e---------------------------------
B---------------------------------
G---------------------------------
D---------2---3-2-----------------
A---0-3-0---0-----3-2-0-5-3-2-----
E---------------------------------

En los campos de concentración

Sin oportunidad de rebelión

Matanza infernal mutilazión

Quemarlos vivos es su diversión

Aun hay quienes quieren al cagon

Sin darse cuenta de su perdición

Nacionalsocialismo es pudrición

Y quien lo practica un maricón


e-----------------------------
B-----------------------------
G-----5---9---10--9--7--------
D-----5---9---10--9--7--------
A---0-3-0-7-0-8---7--5--------
E-----------------------------


e-----------------------------
B-----------------------------
G-----5---9---10--9--12-------
D-----5---9---10--9--12-------
A---0-3-0-7-0-8---7--10-------
E-----------------------------


Por todo esto mata un nazi

Por todo aquello mata un? nazi

Mata un nazi, mata un nazi

Colabora y mata un nazi
Suggest correction
Give kudos to tab author, rate the tab!
1 2 3 4 5
comments
print report bad tab
guest
Wanna post a correction for this tab? Suggest correction