Oops, an error
Loading. Please wait.

Nueva Esperanza Bass

by GP
33 views 3 this week
no commentswrite comment
1 2 3 4 5
3 more votes to show rating
add to favorites
launch autoscroll
font size
0
reset
guitar tuner
×
Best way to learn
"Nueva Esperanza"
Autoscroll
slow
fast
+/-
esc
set tempo
stop
---------------------------------------
---------------------------------------
-2-2---------2-2---------3-3-2-2-------    x2
-----3-3-5-5-----3-3-5-5---------------

En algún lugar del mapa...
---------------------------------------
---------------------------------------
-2-2---------2-2---------3-3-2-2-------    x2
-----3-3-5-5-----3-3-5-5---------------

---------------------------------------
------2-2--2-2-0-----------------------
--2-2-------------------3-3--3-3-2-2---
-----------------3--3-3----------------

---------------------------------------
---------------------------------------
-2-2---------2-2-3-3-2-2---------------
-----3-3-5-5-------------7-7-5-5-------

Imperializtaz al poder...
---------------------------------------
---------------------------------------
-2-2---------2-2--2-2-----3-3-2-2------
-----3-3-5-5----------3-3--------------

---------------------------------------
---------------------------------------
-2-2---------2-2-3-3-2-2---------------
-----3-3-5-5-------------7-7-5-5-------

1, 2, 1, 2, 3, va...
---------------------------------------
---------------------------------------
---------55555-------77777-------------
---33333-------55555-------------------

Coro:
Nueva ezperanxa...
-------------------------------
-------------------------------
---3-3-2------5-5-3------------  x2
---------3-3-------5-5---------

Nueva ezperanxa, y tengan pazienxia...
---------------------------------------
---------------------------------------
---------55555-------77777-------------
---33333-------55555-------------------

Coro
-------------------------------
-------------------------------
---3-3-2------5-5-3------------
---------3-3-------5-5---------

---------------------------------------
---------------------------------------
---------55555-------77777-------------
---33333-------55555-------------------

-------------------------------
-------------------------------
---3-3-2------5-5-3------------
---------3-3-------5-5---------

Ezta kanxión ez una de las viejas de ezta banda.
Muy buena y muy fáxil...
Suggest correction
Give kudos to tab author, rate the tab!
1 2 3 4 5
comments
print report bad tab
guest
You may want to rate the tab now too:
select rating
Wanna post a correction for this tab? Suggest correction