Oops, an error
Loading. Please wait.

Vanidad Bass

by GP
36 views 3 this week
no commentswrite comment
1 2 3 4 5
3 more votes to show rating
add to favorites
launch autoscroll
font size
0
reset
guitar tuner
×
Best way to learn
"Vanidad"
Autoscroll
slow
fast
+/-
esc
set tempo
stop
-------------
-------------
--3-2--------
------3-2-0--

-----------------------------------------------------
-----------------------------------------------------
--3-3-3-3-5-3-2-2-2-2---2?3-3-3-3-5-3-2-2-2?3-2------
----------------------5------------------------3-2---

Voy caminando por la calle...
-------------------------------------
-------------------------------------
-------------------------------------
--000-555-000-5555-000-555-000-5555--

Voy kejandome de la zituaxion...
-----------------------------------------------------
-----------------------------------------------------
--3-3-3-3-5-3-2-2-2-2---2?3-3-3-3-5-3-2-2-2?3-2------
----------------------5------------------------3-2---

No tengo trabajo, no tengo nada...
-------------------------------------
-------------------------------------
-------------------------------------
--000-555-000-5555-000-555-000-5555--

Ohh vanidad, Ohh vanidad...
-----------------------------------------------------
-----------------------------------------------------
--3-3-3-3-5-3-2-2-2-2---2?3-3-3-3-5-3-2-2-2?3-2------
----------------------5------------------------3-2---

Se ke zoy un loko, un pobre tonto...
-------------------------------------
-------------------------------------
-------------------------------------
--000-555-000-5555-000-555-000-5555--

Ze ke zoy terko, baztante nexio...
-----------------------------------------------------
-----------------------------------------------------
--3-3-3-3-5-3-2-2-2-2---2?3-3-3-3-5-3-2-2-2?3-2------
----------------------5------------------------3-2---

Yo xiempre vivo un poko apriza...
-------------------------------------
-------------------------------------
-------------------------------------
--000-555-000-5555-000-555-000-5555--

No le doy mi voto a ningún partido...
-----------------------------------------------------
-----------------------------------------------------
--3-3-3-3-5-3-2-2-2-2---2?3-3-3-3-5-3-2-2-2?3-2------
----------------------5------------------------3-2---

No sigo rektaz...
-------------------------------------
-------------------------------------
-------------------------------------
--000-555-000-5555-000-555-000-5555--

Ohh vanidad, Ohh vanidad...
-----------------------------------------------------
-----------------------------------------------------
--3-3-3-3-5-3-2-2-2-2---2?3-3-3-3-5-3-2-2-2?3-2------
----------------------5------------------------3-2---

Se ke zoy un loko, un pobre tonto...
-------------------------------------
-------------------------------------
-------------------------------------
--000-555-000-5555-000-555-000-5555--

Ze ke zoy terko, baztante nexio...
-----------------------------------------------------
-----------------------------------------------------
--3-3-3-3-5-3-2-2-2-2---2?3-3-3-3-5-3-2-2-2?3-2------
----------------------5------------------------3-2---

Se ke zoy un loko, un pobre tonto...
-------------------------------------
-------------------------------------
-------------------------------------
--000-555-000-5555-000-555-000-5555--

Ze ke zoy terko, baztante nexio...
-----------------------------------------------------
-----------------------------------------------------
--3-3-3-3-5-3-2-2-2-2---2?3-3-3-3-5-3-2-2-2?3-2------
----------------------5------------------------3-2---

Se ke zoy un loko, un pobre tonto...
-----------------------------
-----------------------------
-----------------------------
--0-------5-------0-------5--

Ze ke zoy terko, baztante nexio...
------------------------------
------------------------------
--3-------2--------3-------2--
------------------------------

Se ke zoy un loko, un pobre tonto...
-----------------------------
-----------------------------
-----------------------------
--00-55-00-555-00-55-00-555--

Ze ke zoy terko, baztante nexio...
-------------------------------
-------------------------------
--333333-222222-333333-222222--
-------------------------------
Se ke zoy un loko, un pobre tonto...
-----------------------------
-----------------------------
-----------------------------
--00-55-00-555-00-55-00-555--

Ze ke zoy terko, baztante nexio...
----------------------------------
----------------------------------
--333333-222222-333333-222222-----
-------------------------------0--

Ezta kanxión en -Pecados capitales- se llama -El orgullo-
y en -Conxierto para delinkir- se llama -Vanidad-
...Ez severo tema, y eztá breve de sakar, zoyenxelo...
Suggest correction
Give kudos to tab author, rate the tab!
1 2 3 4 5
comments
print report bad tab
guest
You may want to rate the tab now too:
select rating
Wanna post a correction for this tab? Suggest correction