Oops, an error
Loading. Please wait.

Iago tab

196 views 1 this week
2 commentsread comments
1 2 3 4 5
1 last vote to show rating
add to favorites
×
Save as Personal and add changes to this tab that will be seen only by you. Learn more ›
×
You can save this tab as Personal to edit and correct it or add notes. All changes will be seen only by you. Learn more »
launch autoscroll
font size
0
reset
how to read this tab
guitar tuner
edit
Autoscroll
slow
fast
+/-
esc
set tempo
stop
Author
Difficulty
[Intro]

e|----------------------------------------------------0-0--------------------|
B|------1-------1-----------0------0-----------1----------------1------1-----|
G|---0-------0------0-----0------0-----0-----0------0--0------0------0-----0-|
D|--------2-------2------------2-----2------------3---------3------3-----3---|
A|-3-------------------------------------------------------------------------|
E|---------------------0------------------1----------------------------------|

e|----------------------------------------------------0-0--------------------|
B|------1-------1-----------0------0-----------1-------1--------1------1-----|
G|---0-------0------0-----0------0-----0-----0------0---------0------0-----0-|
D|--------2-------2------------2-----2------------3---------3------3-----3---|
A|-3-------------------------------------------------------------------------|
E|---------------------0------------------1----------------------------------|

[Verse 1]
e|----------------------------------------------------0-0--------------------|
B|------1-------1-----------0------0-----------1-------1--------1------1-----|
G|---0-------0------0-----0------0-----0-----0------0---------0------0-----0-|
D|--------2-------2------------2-----2------------3---------3------3-----3---|
A|-3-------------------------------------------------------------------------|
E|---------------------0------------------1----------------------------------|

e|----------------------------------------------0-0---------------------------------|
B|-----1-----1----------1-------1-------1----------------1---------1-------1---1----|
G|---2-----2-----2----2-------0-------0------0---0-----0---------0-------2----2---2-|
D|-------2-----2---------------------------3---------3-----3-----------------2---2--|
A|-0---------------2------2-3-----3---------------------------2------2-0------------|
E|----------------------------------1-----------------------------------------------|

e|----------------------0-0--------------------------------------------------|
B|------1--------1---------------1-----1-------------------------------------|
G|----0--------0-----0---0-----0---- 0----0----------------------------------|
D|--------2--------3---------3-----3----3------------------------------------|
A|--3------------------------------------------------------------------------|
E|-----------1---------------------------------------------------------------|

e|----------------------------------------------0-0--------------------------|
B|-----1-----1----------1-------1-------1----------------1-----1-------------|
G|---2-----2-----2----2-------0-------0------0---0-----0-----0-----0---------|
D|-------2-----2---------------------------3---------3-----3-----3-----------|
A|-0---------------2------2-3-----3------------------------------------------|
E|----------------------------------1----------------------------------------|

e|--------------------------------------------------0-0----------------------|
B|------0------0-----------1-----1-----------1-------------1---------1-------|
G|----0------0-----0-----2-----2-----2-----0-----0---0----0--------0---------|
D|---------0-----0-----------2-----2-----------3---------3---3---------------|
A|--------------------0------------------------------------------2----2------|
E|-3------------------------------------1------------------------------------|

e|-------------------------------------------------0-0-----------------------|
B|------1-----1-----------0-----0-----------1-------------1---------0--------|
G|----2-----2-----2-----0-----0-----0-----0-----0---0----0--------0----------|
D|--------2-----2-----------0-----0-----------3---------3--3-----------------|
A|--0------------------------------------------------------------------------|
E|-------------------3-----------------1-----------------------3-------3-----|


[Chorus]

e|------------------------------------------------------------------------------|
B|------1-----1-----------0-----0------------1-----1------------1---------0-----|
G|----0-----0-----0-----0-----0-----0------2-----2-----2------0---------0-------|
D|--------2-----2-----------0-----0------------2-----2------------3---------0---|
A|-3------------------------------------0---------------------------------------|
E|-------------------3-------------------------------------1---------3----------|

e|------------------------------------------------------------------------------|
B|------1-----1-----------0-----0------------1-----1------------1--------0------|
G|----0-----0-----0-----0-----0-----0------2-----2-----2------0--------0--------|
D|--------2-----2-----------0-----0------------2-----2---------------------0----|
A|-3------------------------------------0---------------------------------------|
E|-------------------3-------------------------------------1--------3-----------|

e|------------------------------------------------0-0------------------------|
B|-----1-----1-----------0-----0-----------1---------------1--------1--------|
G|---2-----2-----2-----0-----0-----0-----0-----0---0-----0--------0----------|
D|-------2-----2-----------0-----0-----------3---------3-----3---------------|
A|-0------------------------------------------------------------2-----2------|
E|------------------3-----------------1--------------------------------------|

e|------------------------------------------------0-0------------------------|
B|-----1-----1-----------0-----0-----------1---------------1--------1--------|
G|---2-----2-----2-----0-----0-----0-----0-----0---0-----0--------0----------|
D|-------2-----2-----------0-----0-----------3---------3-----3---------------|
A|-0------------------------------------------------------------2------------|
E|------------------3-----------------1--------------------------------------|

e|-----------2---------------0-0------------------------------------2-------------|
B|---1-------1---------1---------------1-------1----------1-------1---------1-----|
G|---2-------2-------0----0---0------0-------0------------2-----------------0-----|
D|---2-------0---------------------3----3---------------------0-0-------3-3-------|
A|---0-------------------------------------2------2---0-0-------------------------|
E|----------------1---------------------------------------------------------------|


[Verse 2]

e|----------------------------------------------------0-0--------------------|
B|------1-------1-----------0------0-----------1----------------1------1-----|
G|---0-------0------0-----0------0-----0-----0------0--0------0------0-----0-|
D|--------2-------2------------2-----2------------3---------3------3-----3---|
A|-3-------------------------------------------------------------------------|
E|---------------------0------------------1----------------------------------|

e|----------------------------------------------------0-0--------------------|
B|------1-------1-----------0------0-----------1-------1--------1------1-----|
G|---0-------0------0-----0------0-----0-----0------0---------0------0-----0-|
D|--------2-------2------------2-----2------------3---------3------3-----3---|
A|-3-------------------------------------------------------------------------|
E|---------------------0------------------1----------------------------------|

e|----------------------------------------------------0-0--------------------|
B|------1-------1-----------0------0-----------1-------1--------1------1-----|
G|---0-------0------0-----0------0-----0-----0------0---------0------0-----0-|
D|--------2-------2------------2-----2------------3---------3------3-----3---|
A|-3-------------------------------------------------------------------------|
E|---------------------0------------------1----------------------------------|

e|----------------------------------------------0-0---------------------------------|
B|-----1-----1----------1-------1-------1----------------1---------1-------1---1----|
G|---2-----2-----2----2-------0-------0------0---0-----0---------0-------2----2---2-|
D|-------2-----2---------------------------3---------3-----3-----------------2---2--|
A|-0---------------2------2-3-----3---------------------------2------2-0------------|
E|----------------------------------1-----------------------------------------------|

e|----------------------0-0--------------------------------------------------|
B|------1--------1---------------1-----1-------------------------------------|
G|----0--------0-----0---0-----0---- 0----0----------------------------------|
D|--------2--------3---------3-----3----3------------------------------------|
A|--3------------------------------------------------------------------------|
E|-----------1---------------------------------------------------------------|

e|----------------------------------------------0-0--------------------------|
B|-----1-----1----------1-------1-------1----------------1-----1-------------|
G|---2-----2-----2----2-------0-------0------0---0-----0-----0-----0---------|
D|-------2-----2---------------------------3---------3-----3-----3-----------|
A|-0---------------2------2-3-----3------------------------------------------|
E|----------------------------------1----------------------------------------|

e|--------------------------------------------------0-0----------------------|
B|------0------0-----------1-----1-----------1-------------1---------1-------|
G|----0------0-----0-----2-----2-----2-----0-----0---0----0--------0---------|
D|---------0-----0-----------2-----2-----------3---------3---3---------------|
A|--------------------0------------------------------------------2----2------|
E|-3------------------------------------1------------------------------------|

e|-------------------------------------------------0-0-----------------------|
B|------1-----1-----------0-----0-----------1-------------1---------0--------|
G|----2-----2-----2-----0-----0-----0-----0-----0---0----0--------0----------|
D|--------2-----2-----------0-----0-----------3---------3--3-----------------|
A|--0------------------------------------------------------------------------|
E|-------------------3-----------------1-----------------------3-------3-----|


[Chorus]

e|------------------------------------------------------------------------------|
B|------1-----1-----------0-----0------------1-----1------------1---------0-----|
G|----0-----0-----0-----0-----0-----0------2-----2-----2------0---------0-------|
D|--------2-----2-----------0-----0------------2-----2------------3---------0---|
A|-3------------------------------------0---------------------------------------|
E|-------------------3-------------------------------------1---------3----------|

e|------------------------------------------------------------------------------|
B|------1-----1-----------0-----0------------1-----1------------1--------0------|
G|----0-----0-----0-----0-----0-----0------2-----2-----2------0--------0--------|
D|--------2-----2-----------0-----0------------2-----2---------------------0----|
A|-3------------------------------------0---------------------------------------|
E|-------------------3-------------------------------------1--------3-----------|

e|------------------------------------------------0-0------------------------|
B|-----1-----1-----------0-----0-----------1---------------1--------1--------|
G|---2-----2-----2-----0-----0-----0-----0-----0---0-----0--------0----------|
D|-------2-----2-----------0-----0-----------3---------3-----3---------------|
A|-0------------------------------------------------------------2-----2------|
E|------------------3-----------------1--------------------------------------|

e|------------------------------------------------0-0------------------------|
B|-----1-----1-----------0-----0-----------1---------------1--------1--------|
G|---2-----2-----2-----0-----0-----0-----0-----0---0-----0--------0----------|
D|-------2-----2-----------0-----0-----------3---------3-----3---------------|
A|-0------------------------------------------------------------2------------|
E|------------------3-----------------1--------------------------------------|

e|-----------2---------------0-0------------------------------------2-------------|
B|---1-------1---------1---------------1-------1----------1-------1---------1-----|
G|---2-------2-------0----0---0------0-------0------------2-----------------0-----|
D|---2-------0---------------------3----3---------------------0-0-------3-3-------|
A|---0-------------------------------------2------2---0-0-------------------------|
E|----------------1---------------------------------------------------------------|


[Outro]

e|----------------------------------------------------0-0--------------------|
B|------1-------1-----------0------0-----------1----------------1------1-----|
G|---0-------0------0-----0------0-----0-----0------0--0------0------0-----0-|
D|--------2-------2------------2-----2------------3---------3------3-----3---|
A|-3-------------------------------------------------------------------------|
E|---------------------0------------------1----------------------------------|

e|----------------------------------------------------0-0--------------------|
B|------1-------1-----------0------0-----------1-------1--------1------1-----|
G|---0-------0------0-----0------0-----0-----0------0---------0------0-----0-|
D|--------2-------2------------2-----2------------3---------3------3-----3---|
A|-3-------------------------------------------------------------------------|
E|---------------------0------------------1----------------------------------|

e|----0------------------0----------------0---------|
B|----1------------------0----------------1---------|
G|----0------------------0----------------0---------|
D|----2------------------2----------------3---------|
A|----3------------------2----------------3---------|
E|-----------------------0----------------1---------|

            
            
Suggest correction
Creating personal tab
Creating personal tab
You can edit any tab online and save it as your Personal.

You can edit, replace or remove any tab part or add personal notes – all changes will be seen only by you.

Personal tabs can be accessed anytime from any device, even offline.
Learn more »
Give kudos to tab author, rate the tab!
1 2 3 4 5
comments
print report bad tab
2 comments total.
0 reply
greatbigparty 198 Sep 02, 2016 12:38 PM

didn't like this contribution

0 reply
danielrobertpoulton 10 Oct 08, 2016 01:18 PM

Great, very accurate. Beautiful piece of music tho pretty fiendish to play. Would be great to have the chord names about the tab, but great work.

guest
You may want to rate the tab now too:
select rating
Wanna post a correction for this tab? Suggest correction