Oops, an error
Loading. Please wait.

I Dont Know My Name Tab

67 views 60 this week
no commentswrite comment
1 2 3 4 5
2 more votes to show rating
add to favorites
launch autoscroll
font size
0
reset
how to read this tab
guitar tuner
Autoscroll
slow
fast
+/-
esc
set tempo
stop
Help us to improve Ultimate-Guitar.com Take our survey!
×
Author
Difficulty
novice
About this tab version
I transcribed this off the "Grace Vanderwaal - Audition for America's Got Talent". Hope you all enjoy it. Watch her audition video to get to understand how this TAB is played. Was this info helpful? Yes No
[Intro]

e|----------------------------------|-----------------------------------------|
B|----------------------------------|-----------------------------------------|
G|----------------------------------|-----------------------------------------|
D|----------------------------------|-----------------------------------------|
A|--------9-7----------9-9----------|----------9------9-----------------------|
E|-11-9-7-----9-11-9-7-----11-9-7-9-|-11-9-7-11--11-9---11-9------------------|

[Verse]

e|--------------------------------------|-------------------------------------|
B|--------------------------------------|-------------------------------------|
G|--------------------------------------|-------------------------------------|
D|--------------------------------------|-------------------------------------|
A|-------------9-7-9-7-9---------9------|--------9-7-9-7-9---------9----------|
E|-11-9-7-11-7-----------11-9-11---11-9-|-11-7-11-----------11-9-11---11-9----|

[Bridge]

e|----------------------------------|-----------------------------------------|
B|----------------------------------|-----------------------------------------|
G|----------------------------------|-----------------------------------------|
D|----------------------------------|-----------------------------------------|
A|-----------------9----------------|----7------------------------------------|
E|-11-9-11-11-9-11---9-9-7-9-7-11-9-|-0-7---11-11-9-11-9-11-7-11-9------------|

[Chorus]

e|----------------------------------|-----------------------------------------|
B|----------------------------------|-----------------------------------------|
G|----------------------------------|-----------------------------------------|
D|----------------------------------|-----------------------------------------|
A|----------9-7--------9-9----------|-----------9------9----------------------|
E|-7-11-9-7-----11-9-7-----11-9-7-9-|-11-9-7-11---11-9---11-9-----------------|

[Outro]

e|------------------------------------|----------------------------------------|
B|------------------------------------|----------------------------------------|
G|------------------------------------|----------------------------------------|
D|------9-8------9-8------------------|-------9--------9-----------------------|
A|----------11-9-----11-9-9-11-7-11-9-|---------9-11-9---9-11-9-11-9-----------|
E|-11-7-------------------------------|-11-9-7------------------------9-11-9-7-|
Suggest correction
Give kudos to tab author, rate the tab!
1 2 3 4 5
comments
print report bad tab
guest
You may want to rate the tab now too:
select rating
Wanna post a correction for this tab? Suggest correction