Oops, an error
Loading. Please wait.

Conceptualizing Theories In Motion bass

by Grade
224 views 1 this week
no commentswrite comment
1 2 3 4 5
2 more votes to show rating
add to favorites
×
Save as Personal and add changes to this tab that will be seen only by you. Learn more ›
×
You can save this tab as Personal to edit and correct it or add notes. All changes will be seen only by you. Learn more »
launch autoscroll
font size
0
reset
guitar tuner
edit
Autoscroll
slow
fast
+/-
esc
set tempo
stop
“Conceptualizing Theories in Motion” by Grade

Tabbed by Greg Mitchell

Dropped D Tuning

Intro:              (Fourth Time)
G|--------------    ----------------|
D|--------------    ----------------|
A|------6-6-6-6- x3 -----6-6-xx-9-9-|
D|-0~-----------    --0~------------|

(“Tune in to the transmission...”):
G|-----------------------------------------------|
D|-----------------------------------------------|
A|---3h5-3h5------------------3h5-3h5-6-6-xx-9-9-| x4
D|-0---------0-3p0-0-5-5-3--0--------------------|
Play this 4 times, on the last time play:

G|------------------|
D|------------------|
A|-6-6-6-6-6-6-6666-|
D|------------------|

G|-----------------------|
D|---44-55-44---44-55-44-|
A|-----------------------|
D|-0----------0----------|

(“Still creates motion...”):
G|----------------------------------|
D|----------------------------------|
A|----------------------------------|
D|-99999999-7777777-555555555555555-|

(“My, my rest is...”):
G|---------------------------------|
D|----555-444-5-4------555-444-5-4-|
A|---------------------------------|
D|-0-0------------0--0-------------|

(“Is on the go...”):
G|----------------------------------|
D|----------------------------------|
A|----------------------------------|
D|-99999999-7777777-555555554444555-|

(“My, in my motion”):
G|---------------------------------|
D|----555-444-5-4------555-444-5-4-|
A|---------------------------------|
D|-0-0------------0--0-------------|

(“Is in unrest...”):
G|----------------------------------|
D|----------------------------------|
A|----------------------------------|
D|-99999999-7777777-555555555555555-|

(“And I know for myself that I am...”):
G|---------------------------------------------------|
D|---------------------------------------------------|
A|---------------------------------------------------| x4
D|-9-99-9-99-9-99-9-7-77-7-777-777-77-5-555-55-55-55-|

(“By the magnitude...”):
G|-----------------------------------|
D|-9-99-999-7-77-777-5-5555-55-55-55-|
A|-----------------------------------| x2
D|-----------------------------------|
The second time you play this, just ring out the G,
don’t keep strumming it.


(“Travel and transport...”):
G|-----------------------------------------------|
D|-----------------------------------------------|
A|---3h5-3h5------------------3h5-3h5-6-6-xx-9-9-| x4
D|-0---------0-3p0-0-5-5-3--0--------------------|
Play this 4 times, on the last time play:

G|------------------|
D|------------------|
A|-6-6-6-6-6-6-6666-|
D|------------------|

(“The signal is out!”):
G|------|
D|------|
A|------|
D|-0~~~-
Keep hitting this D and ringing it until...

(“I’m revolving in the rotation...”):
G|-----------------------------|
D|-----------------------------|
A|-----------------------------|
D|-00000000000-99999999-555555-|

Play that until the end.  End with an Open D.

            
            
Suggest correction
Creating personal tab
Creating personal tab
You can edit any tab online and save it as your Personal.

You can edit, replace or remove any tab part or add personal notes – all changes will be seen only by you.

Personal tabs can be accessed anytime from any device, even offline.
Learn more »
Give kudos to tab author, rate the tab!
1 2 3 4 5
comments
print report bad tab
guest
You may want to rate the tab now too:
select rating
Wanna post a correction for this tab? Suggest correction