Oops, an error
Loading. Please wait.

Home Chords

25 views 6 this week
no commentswrite comment
1 2 3 4 5
3 more votes to show rating
add to favorites
launch autoscroll
font size
0
reset
transpose
0
reset
display chords
guitar tuner
Autoscroll
slow
fast
+/-
esc
set tempo
stop
Help us to improve Ultimate-Guitar.com Take our survey!
×
Author
Difficulty
novice
[Main Riff]
   E                           A
e|-----------------------------0---------------------|
B|-----------------------------2---------------------|
G|-----------------------------2---------------------|
D|--------2---4/6------6-4-2---2---------------------|
A|----2/4----------------------0---------------------|
E|-----------------------------0---------------------|

   E                           B
e|-----------------------------2---------------------|
B|-----------------------------4---------------------|
G|-----------------------------4---------------------|
D|--------2---4/6------6-4-2---4---------------------|
A|----2/4----------------------2---------------------|
E|-----------------------------2---------------------|


[Verse 1]
       E                        A
Oh my home will always be where my brothers are
        E                         B
Yes my home will always stay with my girl
        E                        A
Oh my home will always be where my family stays
        B                                  A                  E 
Sure we may not share our blood but we've damn sure seen the day

[Verse 2]
       E                      A
Oh my home has always been so good to me
       E                        B
Yes my home has always kept me straight
       E                        A
Oh my home has always seen the good and bad
             B                        A                        E
Yes now the road calls my name and I hope my friends won't be sad

[Chorus]
           B                     A        E
Well It's easy sometimes not to see the good
          B                      A          E
When you take a look around and know you should
     A                         B          E
Oh God why you gotta call my name right now
     A                         B                  E
Yes that road 'll call my name I guess I gotta go now

(Play chords of verse as bridge then repeat Chorus)
Suggest correction
Give kudos to tab author, rate the tab!
1 2 3 4 5
comments
print report bad tab
guest
You may want to rate the tab now too:
select rating
Wanna post a correction for this tab? Suggest correction