Oops, an error
Loading. Please wait.

Annie You Save Me Bass Tab

332 views 1 this week
no commentswrite comment
1 2 3 4 5
3 more votes to show rating
add to favorites
launch autoscroll
font size
0
reset
guitar tuner
Autoscroll
slow
fast
+/-
esc
set tempo
stop
Help us to improve Ultimate-Guitar.com Take our survey!
×
Author
Difficulty
novice
|verse|
G|---------------|---------------|---------------|---------------|
D|0-0-0-0-0-0----|---------------|--------------3|0-0-0-0-0-0-0-0|
A|------------5-3|------------3-5|------------5--|---------------|
E|---------------|1-1-1-1-1-1----|3-3-3-3-3-3----|---------------|

G|---------------|---------------|---------------|---------------|
D|0-0-0-0-0-0----|---------------|--------------3|0-0-0-0-0-0-0-0|
A|------------5-3|------------3-5|------------5--|---------------|
E|---------------|1-1-1-1-1-1----|3-3-3-3-3-3----|---------------|

G|---------------|---------------|---------------|---------------|
D|0-0-0-0-0-0----|---------------|--------------3|0-0-0-0-0-0-0-0|
A|------------5-3|------------3-5|------------5--|---------------|
E|---------------|1-1-1-1-1-1----|3-3-3-3-3-3----|---------------|

G|---------------|---------------|---------------|---------------|
D|0-0-0-0-0-0----|---------------|--------------3|0-0-0-0-0-0-0-0|
A|------------5-3|------------3-5|------------5--|---------------|
E|---------------|1-1-1-1-1-1----|3-3-3-3-3-3----|---------------|

|Chorus|
G|---------------|---------------|---------------|---------------|
D|0-0-0-0-0-0----|---------------|---------------|--------------3|
A|------------5-3|------------5-3|3-3-3-3-3-3-5--|------------5--|
E|---------------|1-1-1-1-1-1----|--------------5|3-3-3-3-3-3----|

G|---------------|---------------|---------------|---------------|
D|0-0-0-0-0-0----|---------------|---------------|---------------|
A|------------5-3|------------5-3|3-3-3-3-3-3-5--|------------5/-|
E|---------------|1-1-1-1-1-1----|--------------5|3-3-3-3-3-3----|

G|---------------|---------------|---------------|---------------|
D|---------------|---------------|---------------|---------------|
A|17--17--171717/|15--15--171517-|--------15--15-|---------------|
E|---------------|---------------|15--15----15---|1515/-17-------|

G|19--19--191919/|17--17--191719-|--------17--17-|---------------|
D|---------------|---------------|17--17----17---|1717/-19\--17--|
A|---------------|---------------|---------------|---------------|
E|---------------|---------------|---------------|---------------|

|Interlude|
G|---------------|---------------|---------------|---------------|
D|3/-------------|9\-------------|1/-------------|7\-------------|
A|---------------|---------------|---------------|---------------|
E|---------------|---------------|---------------|---------------|

|verse|
G|---------------|---------------|---------------|---------------|
D|0-0-0-0-0-0----|---------------|--------------3|0-0-0-0-0-0-0-0|
A|------------5-3|------------3-5|------------5--|---------------|
E|---------------|1-1-1-1-1-1----|3-3-3-3-3-3----|---------------|

G|---------------|---------------|---------------|---------------|
D|0-0-0-0-0-0----|---------------|--------------3|0-0-0-0-0-0-0-0|
A|------------5-3|------------3-5|------------5--|---------------|
E|---------------|1-1-1-1-1-1----|3-3-3-3-3-3----|---------------|

G|---------------|---------------|---------------|---------------|
D|0-0-0-0-0-0----|---------------|--------------3|0-0-0-0-0-0-0-0|
A|------------5-3|------------3-5|------------5--|---------------|
E|---------------|1-1-1-1-1-1----|3-3-3-3-3-3----|---------------|

G|---------------|---------------|---------------|---------------|
D|0-0-0-0-0-0----|---------------|--------------3|0-0-0-0-0-0-0-0|
A|------------5-3|------------3-5|------------5--|---------------|
E|---------------|1-1-1-1-1-1----|3-3-3-3-3-3----|---------------|

|Chorus|
G|---------------|---------------|---------------|---------------|
D|0-0-0-0-0-0----|---------------|---------------|--------------3|
A|------------5-3|------------5-3|3-3-3-3-3-3-5--|------------5--|
E|---------------|1-1-1-1-1-1----|--------------5|3-3-3-3-3-3----|

G|---------------|---------------|---------------|---------------|
D|0-0-0-0-0-0----|---------------|---------------|---------------|
A|------------5-3|------------5-3|3-3-3-3-3-3-5--|------------5/-|
E|---------------|1-1-1-1-1-1----|--------------5|3-3-3-3-3-3----|

G|---------------|---------------|---------------|---------------|
D|---------------|---------------|---------------|---------------|
A|17--17--171717/|15--15--171517-|--------15--15-|---------------|
E|---------------|---------------|15--15----15---|1515/-17-------|

G|19--19--191919/|17--17--191719-|--------17--17-|---------------|
D|---------------|---------------|17--17----17---|1717/-19\--17--|
A|---------------|---------------|---------------|---------------|
E|---------------|---------------|---------------|---------------|

|Bridge|
G|---------------|---------------|---------------|---------------|
D|---------------|---------------|---------------|---------------|
A|17---------17\-|15---------15--|---------------|---------------|
E|---------------|---------------|15---------15--|13/-10---------|

G|---------------|---------------|---------------|---------------|
D|---------------|---------------|---------------|---------------|
A|1715-------17\-|15---------15--|---------------|---------------|
E|----17---------|---------------|15---------15--|13/-10---------|

|Interlude|
G|----------------|----------------|----------------|----------------|
D|----------------|----------------|----------------|----------------|
A|171717171717----|151515151515----|----------------|----------------|
E|------------1717|------------1513|1515151515151313|1010101010101010|

G|----------------|----------------|----------------|----------------|
D|----------------|----------------|----------------|----------------|
A|17--17--15------|17--17----15----|----------------|----------------|
E|----------1717--|--------17--15--|15--15--151315--|15--15--151310--|

|Chorus|
G|---------------|---------------|---------------|---------------|
D|0-0-0-0-0-0----|---------------|---------------|--------------3|
A|------------5-3|------------5-3|3-3-3-3-3-3-5--|------------5--|
E|---------------|1-1-1-1-1-1----|--------------5|3-3-3-3-3-3----|

G|---------------|---------------|---------------|---------------|
D|0-0-0-0-0-0----|---------------|---------------|---------------|
A|------------5-3|------------5-3|3-3-3-3-3-3-5--|------------5/-|
E|---------------|1-1-1-1-1-1----|--------------5|3-3-3-3-3-3----|

G|---------------|---------------|---------------|---------------|
D|---------------|---------------|---------------|---------------|
A|17--17--171717/|15--15--171517-|--------15--15-|---------------|
E|---------------|---------------|15--15----15---|1515/-17-------|

G|19--19--191919/|17--17--191719-|--------17--17-|---------------|
D|---------------|---------------|17--17----17---|1717/-19\--17--|
A|---------------|---------------|---------------|---------------|
E|---------------|---------------|---------------|---------------|

(watch the difference between 5, 3, 1 and 13, 15, 17 etc.)
Suggest correction
Give kudos to tab author, rate the tab!
1 2 3 4 5
comments
print report bad tab
guest
You may want to rate the tab now too:
select rating
Wanna post a correction for this tab? Suggest correction