Oops, an error
Loading. Please wait.

Al Filo De La Cordura Tab

23 views 1 this week
no commentswrite comment
1 2 3 4 5
3 more votes to show rating
add to favorites
launch autoscroll
font size
0
reset
how to read this tab
guitar tuner
Autoscroll
slow
fast
+/-
esc
set tempo
stop
Help us to improve Ultimate-Guitar.com Take our survey!
×
Transcripcion echa 100% por mi 100% correcta
La afinacion es standart (eBGDAE)
La rola esta esta chida y muy facil!!!
Califiquenla!!!!


INTRO


|-----------------------------------|
|-----------------------------------|
|--7-7-7-7-4-4-4-4------------------|
|--7-7-7-7-4-4-4-4-5-5-5-5-7-7-7-7--| Esta parte se toca 4 veces
|--5-5-5-5-2-2-2-2-5-5-5-5-7-7-7-7--|
|------------------3-3-3-3-5-5-5-5--|

VERSO 1


|-----------------------------------|
|-----------------------------------|
|--7-7-7-7-4-4-4-4------------------|
|--7-7-7-7-4-4-4-4-5-5-5-5-7-7-7-7--| Esto se toca 4 veces
|--5-5-5-5-2-2-2-2-5-5-5-5-7-7-7-7--| Como ven es lo mismo que
|------------------3-3-3-3-5-5-5-5--| El Intro

   Hoy voy a beberme mas de cien cervesas.....


VERSO 2


|---------------------------------------|
|---------------------------------------|
|-----------44444444----------7777------| Esto se toca 2 veces
|--55555555-44444444-55555555-77777777--|
|--55555555-22222222-55555555-55557777--|
|--33333333----------33333333-----5555--|

   Quiero conocer el filo de la cordura....


SE REPITE INTRO


|-----------------------------------|
|-----------------------------------|
|--7-7-7-7-4-4-4-4------------------|
|--7-7-7-7-4-4-4-4-5-5-5-5-7-7-7-7--| Esta parte se toca 4 veces
|--5-5-5-5-2-2-2-2-5-5-5-5-7-7-7-7--|
|------------------3-3-3-3-5-5-5-5--|


VERSO 3


|---------------------------------------|
|---------------------------------------|
|-----------44444444----------7777------| Esto se toca 2 veces
|--55555555-44444444-55555555-77777777--|
|--55555555-22222222-55555555-55557777--|
|--33333333----------33333333-----5555--|

   Y si me ves tirado abrasando una botella.....


SE REPITE INTRO


|-----------------------------------|
|-----------------------------------| Esta parte se toca 2 veces
|--7-7-7-7-4-4-4-4------------------| Luego entra un pequeño solo
|--7-7-7-7-4-4-4-4-5-5-5-5-7-7-7-7--|
|--5-5-5-5-2-2-2-2-5-5-5-5-7-7-7-7--|
|------------------3-3-3-3-5-5-5-5--|


SOLO


|--------------------------------------------------------------|
|--------------------------------------------------------------|
|--------------------------------------------------------------|
|-----------7-5-4----------4-2-0-------------------------------|
|--5-555555-------2-222222----------------5-3-2----------7-5-3-|
|--------------------------------3-333333-------5-555555-------|

   El pequeño solo se toca 2 veces


SE REPITE INTRO


|-----------------------------------|
|-----------------------------------|
|--7-7-7-7-4-4-4-4------------------|
|--7-7-7-7-4-4-4-4-5-5-5-5-7-7-7-7--| Esta parte se toca 4 veces
|--5-5-5-5-2-2-2-2-5-5-5-5-7-7-7-7--|
|------------------3-3-3-3-5-5-5-5--|

SE REPITE VERSO 1


|-----------------------------------|
|-----------------------------------|
|--7-7-7-7-4-4-4-4------------------|
|--7-7-7-7-4-4-4-4-5-5-5-5-7-7-7-7--| Esto se toca 4 veces
|--5-5-5-5-2-2-2-2-5-5-5-5-7-7-7-7--|
|------------------3-3-3-3-5-5-5-5--|

   Hoy voy a beberme mas de cien cervesas.....


SE REPITE VERSO 2


|---------------------------------------|
|---------------------------------------|
|-----------44444444----------7777------| Esto se toca 2 veces
|--55555555-44444444-55555555-77777777--|
|--55555555-22222222-55555555-55557777--|
|--33333333----------33333333-----5555--|

   Quiero conocer el filo de la cordura....


SE REPITE INTRO


|-----------------------------------|
|-----------------------------------| Esta parte se toca 2 veces
|--7-7-7-7-4-4-4-4------------------| Luego entra un pequeño solo
|--7-7-7-7-4-4-4-4-5-5-5-5-7-7-7-7--|
|--5-5-5-5-2-2-2-2-5-5-5-5-7-7-7-7--|
|------------------3-3-3-3-5-5-5-5--|


SE REPITE SOLO


|--------------------------------------------------------------|
|--------------------------------------------------------------|
|--------------------------------------------------------------|
|-----------7-5-4----------4-2-0-------------------------------|
|--5-555555-------2-222222----------------5-3-2----------7-5-3-|
|--------------------------------3-333333-------5-555555-------|

   El pequeño solo se toca 4 veces

   La cuarta vez que toque el solo al final va un D asi

 -----------|
 -----------|
 -----------|
 -----------|
 -5~~~~~~~--|
 -----------|


AÑADO LETRA DE LA CANCION TAMBIEN TRANSCRITA POR MI:


Hoy voy a beberme mas de cien cervesas
Quiero fumar hierba hasta el amanecer
Encajare agujas por todo mi cuerpo
Y llenare de polvo toda mi nariz

Quiero conocer el filo de la cordura
Quiero traspasar la verdadera realidad
Y si acaso quedo muerto en el intento
Feliz y contento de ya no regresar

Y si me ves tirado abrazando una botella
No pienses que sufro es algo de verdad
Estoy disfrutando esta maldita existencia
Otra vez de un salto de ella escapar

Hoy voy a beberme mas de cien cervesas
Quiero fumar hierba hasta el amanecer
Encajare agujas por todo mi cuerpo
Y llenare de polvo toda mi nariz

Quiero conocer el filo de la cordura
Quiero traspasar la verdadera realidad
Y si acaso quedo muerto en el intento
Feliz y contento de ya no regresar


Califiquenla!!!!
Califiquenla!!!!
Califiquenla!!!!
Califiquenla!!!!
Dudas, aclaraciones sobre la rola cerebelo_8@
Suggest correction
Give kudos to tab author, rate the tab!
1 2 3 4 5
comments
print report bad tab
guest
You may want to rate the tab now too:
select rating
Wanna post a correction for this tab? Suggest correction