Oops, an error
Loading. Please wait.

It Aint No Fun To Me Bass Tab

3,919 views 15 this week
no commentswrite comment
1 2 3 4 5
please rate
add to favorites
launch autoscroll
font size
0
reset
guitar tuner
Autoscroll
slow
fast
+/-
esc
set tempo
stop
Help us to improve Ultimate-Guitar.com Take our survey!
×
Difficulty
intermediate
Graham Central Station
It ain't no fun to me (album version)

intro

G|--9--------9-7--9-7----------------------|
D|--9--------------------------------------|
A|--7~----------------5-5-5-7~-------------|
E|-----------------------------------------|


pre verse / chorus

G|---------------------------12/13--------------|
D|---------------------------11/12--------------| x3
A|---------5------------------------------------|
E|-0-0-1/5--------------------------------------|


G|--------------------|
D|-------4---5---6----|
A|--------------------|
E|-0-0-2---3---4------|

verse

G|-----------------------------------|
D|---7---5---4---2----3---5---4---2--|
A|-----------------------------------|
E|-5---3---2---0----5---3---2---0----|

G|---------------------------12/13--------------|
D|---------------------------11/12--------------|
A|---------5------------------------------------|x2
E|-0-0-1/5--------------------------------------|


repeat as much as necessary

pre-chorus
   V   V   V   V   V   V   V   V   V   V   V   V   V   V   V   V   V
G|---------------------------5---6---------------------------6---7---8---|
D|-----------------------------------------------------------------------|
A|-x-2-x-2-x-2-x-2-x-2-x-2-x---x---x-5-X-5-X-5-X-5-X-5-----4---5---6-----|
E|-----------------------------------------------------5~----------------|

repeat chorus
repeat verse


pre-chorus (variation)

   V   V   V   V   V   V   V   V   V   V   V   V   V   V   V   V   V
G|---------------------------5---6---------------------------------------|
D|-----------------------------------------------------------6---7---8---|
A|-x-2-x-2-x-2-x-2-x-2-x-2-x---x---x-5-X-5-X-5-X-5-X-5-------------------|
E|-----------------------------------------------------5~--4---5---6-----|

   V   V   V   V   V   V   V   V   V   V   V   V   V   V   V   V   V
G|---------------------------5---6---------------------------6---7---8---|
D|-----------------------------------------------------------------------|
A|-x-2-x-2-x-2-x-2-x-2-x-2-x---x---x-5-X-5-X-5-X-5-X-5-----4---5---6-----|
E|-----------------------------------------------------5~----------------|

repeat chorus

repeat verse (with some variations)

repeat pre-chorus (variation) x2

repeat chorus

a cappella

instrumental

G|-------------------7h9--------------------9p7-|
D|----------------------------------------------|
A|-7-5-7------5h7p5-------7-5-7------5h7p5------|
E|-------55-7-------------------55-7------------|

--------------------7h9----------------------7-9-|
-------------------------------------------------|repeat as necessary
-7-5-7-------5h7p5-------7-5-7--------5h7p5------|
-------55-7---------------------55-7-------------|


repeat chorus with some variations

ending 1 (YEEAH! YEEAH! YEEAH WOO HOO!)

   v    v   v   v   v    v   v   v   v    v   v   v   v    v   v   v
G|--------6---7---9--------6---7---9--------6---7---9--------9---7---6-|
D|---------------------------------------------------------------------|
A|------4---5---7--------4---5---7--------4---5---7--------7---5---4---|
E|-0-0--------------0-0--------------0-0--------------0-0--------------|

ending 2 (version 1) you may use one of these, it's the same thing

G|---9---7---6---5-----------9-----------------------|
D|---------------------------9-----------------------|
A|-7---5---4---3---2-x-x-----7~----------------------|
E|---------------------------------------------------|

ending 2 (version 2)

G|-9-9--7-7--6-6--5-5--4---------9-----------------------|
D|-9-9--7-7--6-6--5-5--4---------9-----------------------|
A|-7-7--5-5--4-4--3-3--2-x-x-----7~----------------------|
E|-------------------------------------------------------|


Tabbed by ToshiroCimamoto (ciminamotosensei@gmail.com)
Suggest correction
Give kudos to tab author, rate the tab!
1 2 3 4 5
comments
print report bad tab
guest
You may want to rate the tab now too:
select rating
Please do not post tabs as comments. Select "correction" instead!