Oops, an error
Loading. Please wait.

Freakin Out Tab

version 1
version 1

Whole song

7,297 views 15 this week
no commentswrite comment
1 2 3 4 5
x 8
add to favorites
launch autoscroll
font size
0
reset
how to read this tab
guitar tuner
×
Best way to learn
"Freakin Out"
Autoscroll
slow
fast
+/-
esc
set tempo
stop
Artist: Graham Coxon http://www.grahamcoxon.com
Song: Freakin Out
Tabber: Andrew Biles

This is in standard tuning, I've tried getting most of it down, but I've tabbed it up
quite quickly.  You have to work out the order, but it's quite simple, chorus played
twice, second time with different lyrics.
Anyway.........

 Verse
|-----------------------|
|-----------------------|
|-9----8----7----8----9-|
|-9----9----7----9----9-|
|-7----6----5----6----7-|
|-----------5-----------|

|-----------------------|
|-/9------9-------------|
|----9-11---9--7^-p4-4^-|
|-----------------------|
|-----------------------|
|-----------------------|

 Chorus
|-------------------------------------------------------------------------------|
|-------------------------------------------------------------------------------|
|-9-----------------------------------------8-----------------------------5-----|
|-9-------------------------7---------------8--------------5--------------5-----|
|-7-------------------------7---------------6--------------5--------------3-----|
|---------------------------5------------------------------3--------------------|
    Yeah I'm foaming at the mouth, yeah I'm back without a doubt, cos I'm really

--------------|
--------------|
--8-------9---|
--8-------9---|
--6-------7---|
--------------|
  freakin out

|-----------------------------|
|-----------------------------|
|-2p0-----2p0-----2p0---------|
|-----2p0-----2p0-----2p0---2-|
|-------------------------2-2-|
|---------------------------0-|

 Solo chords
|-------------------------|
|-------------------------|
|-7-7-7-7-7-7-4-4-4-4-4-4-|
|-7-7-7-7-7-7-4-4-4-4-4-4-|
|-5-5-5-5-5-5-2-2-2-2-2-2-|
|-------------------------|

 Solo
|-----4----------------------10^-10^-10^-10^-10--12---10^-7------------------5-|
|------------------9---9------------------------------------10-8--5h8-8--5h8---|
|-7^------------9----9---9-----------------------------------------------------|
|-----------7------------------------------------------------------------------|
|------------------------------------------------------------------------------|
|------------------------------------------------------------------------------|
        ^fast fill

any questions? andrewbiles@hotmail.com
________________
Lyrics (www.saunalahti.fi):

Nothing to see
Nothing to hear
Nothing to be
Nothing to fear
Nothing to prove
Nothing to say
Nothing to loose
Nothing to gain
Nothing to feel
Nothing to hate
Nothing is real
It's all too late
What do you do when nothing's wrong?
Ain't got a clue
Ain't got no song

CHORUS:
Your foaming at the mouth
Your mad without a doubt
Cause I'm really freaking out
I'm going out of my mind
TV's got me going blind
And I'm really freaking out

Hey man you think you got it made
Cool beard you stick on your phantom face
Got on your aviators shades
Yeah man your looking really ace
So what the hell you doing here?
Filling the space between my ears
Why don't you all dissapear
Plus all your friends just way to dear

REPEAT CHORUS

Nothing to see
Nothing to hear
Nothing to be
Nothing to fear
Nothing to prove
Nothing to say
Lala la la lala la la

REPEAT CHORUS
Suggest correction
comments
print report bad tab
guest
You may want to rate the tab now too:
select rating
Wanna post a correction for this tab? Suggest correction