Oops, an error
Loading. Please wait.

Hopeless Friend tab

198 views 1 this week
no commentswrite comment
1 2 3 4 5
2 more votes to show rating
add to favorites
×
Save as Personal and add changes to this tab that will be seen only by you. Learn more ›
×
You can save this tab as Personal to edit and correct it or add notes. All changes will be seen only by you. Learn more »
launch autoscroll
font size
0
reset
how to read this tab
guitar tuner
edit
Autoscroll
slow
fast
+/-
esc
set tempo
stop
Tabbed By: Saviano Perry
smashingpumpkins11@gmail.com

Hopeless Friend
Graham Coxon
Happiness In Magazines
Lyrics Taken From Veikko's Blur Page (vblurpage.com)

Verse:
   D     A   D       D
e|-2~-22-----22------22------|
B|-3~-33-2~--33------33------|
G|-2~-22-2~--22------22------|
D|-0~-00-2~--00---0--00---0--|
A|-------0~-----03-3----03-3-|
E|---------------------------|

   D     A   D        E  F  F#       
e|-2~-22-----22-------00-11-22-|
B|-3~-33-2~--33-------00-11-22-|
G|-2~-22-2~--22-------11-22-33-|
D|-0~-00-2~--00---0-0-22-33-44-|
A|-------0~-----03-3--22-33-44-|
E|--------------------00-11-22-|
Pm                    ________

Pre-Chorus:
G                      
Ain't you got no shoes to wear? 
Bb                C
Ain't you got no blues to share?
   

Bridge:
(At the end of the verse)
   A
e|----------|
B|-22-------|
G|-22-------|
D|-22-------|
A|-00-2345--|
E|----------|

D                                  A          E
You used to think about magic, and how to fit in 
D                                A            E
Now you think about madness and how to stay thin 
A              E  A              E
How to stay thin, how to stay thin






Solo:

e|--------------------------------------------|
B|-5p3-xx---xx-5p3-5-xx-5p3---7b7b7b7b-x-5----|
G|-5p3-xx-5-xx-5p3-5-xx-5p3-5-7b7b7b7b-x-5----|
D|--------5-----------------5-----------------| x2
A|--------------------------------------------|
E|--------------------------------------------|

e|--------------------------------------------------------------------------|
B|---------------------------------------------------5h6-5h6-------6h7--8-9b|
G|-5b-4---------5b-4---------5b-4---------5b-4---------------7b-8b-----8----|
D|------5p4----------5p4----------5p4----------5p4--------------------------|
A|----------5-4----------5-4----------5-4----------5------------------------|
E|--------------------------------------------------------------------------|


Lyrics:

Listen, my hopeless friend
Listen, my hopeless friend
Come inside and drop your coat 
Wash your hair, you smell like a goat

Listen, my hopeless friend
Listen, my hopeless friend
Ain't you got no shoes to wear? 
Ain't you got no blues to share?

You used to think about magic, and how to fit in 
Now you think about madness and how to stay thin 
How to stay thin, how to stay thin

Listen, my hopeless friend
Listen, my hopeless friend
Ain't you got no shoes to wear? 
Ain't you got no blues to share?

You used to think about magic, and how to fit in 
Now you think about madness and how to stay thin

You used to think about magic, and how to fit in 
Now you think about madness and how to stay thin 
How to stay thin, how to stay thin


            
            
Suggest correction
Creating personal tab
Creating personal tab
You can edit any tab online and save it as your Personal.

You can edit, replace or remove any tab part or add personal notes – all changes will be seen only by you.

Personal tabs can be accessed anytime from any device, even offline.
Learn more »
Give kudos to tab author, rate the tab!
1 2 3 4 5
comments
print report bad tab
guest
You may want to rate the tab now too:
select rating
Wanna post a correction for this tab? Suggest correction