Oops, an error
Loading. Please wait.

I Cant Look At Your Skin Tab

332 views 1 this week
no commentswrite comment
1 2 3 4 5
please rate
add to favorites
launch autoscroll
font size
0
reset
how to read this tab
guitar tuner
Tab Pro tools
  • play this tab
  • loop segment
  • change instrument
  • show fretboard
  • metronome
×
Best way to learn
"I Cant Look At Your Skin"
Autoscroll
slow
fast
+/-
esc
set tempo
stop
Contributor
Tabbed By: Saviano Perry (savianoperry)
smashingpumpkins11@gmail.com

I Can't Look At Your Skin
Graham Coxon
Love Travels at Illegal Speeds

Intro:
e|--------| 
B|--------|
G|-88-66--|
D|-88-66--|
A|-66-44--|
E|--------|

e|------------------| 
B|------------------|
G|---------6---6----|
D|-6-66666-6-6-6----|x4
A|-6-66666-4-6-4----|
E|-4-44444---4------|
PM   _____
Verse:
e|---------------------------------4~-4~-----------------------------------| 
B|---------------------------------4~-4~-----------------------------------|
G|---------6---6-------------------5~-5~-----------6---6------------6---6--|
D|-6-66666-6-6-6--6-666666-444444--6~-6~--6-666666-6-6-6---6-666666-6-6-6--|
A|-6-66666-4-6-4--6-666666-444444--6~-6~--6-666666-4-6-4---6-666666-4-6-4--|
E|-4-44444---4----4-444444-222222--4~-4~--4-444444---4-----4-444444---4----|
PM   _____          _____________           ______           ______

e|-----------------------------------------------------------------------------------| 
B|-----------------------------------------------------------------------------------|
G|--------- 6---6-------------------------66-------66-------66---9999999-777777-6---6|
D|-6-666666-6-6-6--6-666666-444444--6-666-66-66666-66-66666-66---xxxxxxx-xxxxxx-6-6-6|
A|-6-666666-4-6-4--6-666666-444444--6-666-44-66666-44-66666-44---7777777-555555-4-6-4|
E|-4-444444---4----4-444444-222222--4-444----44444----44444-----------------------4--|
PM   _____               _____________    ___    _____    _____

e|----------------555-333-----------------| 
B|----------------555-333-----------------|
G|----------6---6-666-444-66----6---------|
D|-6-666666-6-6-6-777-555-66-66-6---------|
A|-6-666666-4-6-4-777-555-44-66-4---------|
E|-4-444444---4---555-333----44-----------|
PM   ______

Chorus: 

e|------------------| 
B|------------------|
G|---6------6-------|
D|---6-6----6-6-----|
A|---4-6----4-6-----|
E|-----4------4-----|

Solo:
e|-------------------------------------------------------------------------| 
B|--------------------------------45-45-45-4~-45-45-4h5----------8-7-6-----|
G|--5555-3-5/6-5-5555-3-----35-35b----------------------5-4---5-7-6-5------|
D|------------------------35---------------------------------5-------------|
A|----------------------35-------------------------------------------------|
E|-------------------------------------------------------------------------|
comments
We did not receive enough feedback on this tab! Please rate:
print report bad tab
1 2 3 4 5
I want to post or [tab]
guest
You may want to rate the tab now too:
select rating
Please do not post tabs as comments. Select "correction" instead!