Oops, an error
Loading. Please wait.

Pina Colada chords

by Granada
592 views 27 this week
no commentswrite comment
1 2 3 4 5
x 3
add to favorites
×
Save as Personal and add changes to this tab that will be seen only by you. Learn more ›
×
You can save this tab as Personal to edit and correct it or add notes. All changes will be seen only by you. Learn more »
launch autoscroll
font size
0
reset
transpose
0
reset
display chords
guitar tuner
edit
Autoscroll
slow
fast
+/-
esc
set tempo
stop
Author
Difficulty
Strumming
There is no strumming pattern for this song yet. and get +5 IQ
[Intro]
                                                                                  C C C C D  D
E|-----3---------2-3----|-----3---------2-3----|-----3---------2-3----|-----3-----0-0-0-0-2--2-|
B|---0---1-0-1----------|---0---1-0-1----------|---0---1-0-1----------|---0---1-0-1-1-1-1-1--1-|
G|--0-0-----2-22--------|--0-0-----2-22--------|--0-0-----2-22--------|--0-0------0-0-0-0-2--2-|
D|----------------------|----------------------|----------------------|-----------2-2-2-2-0--0-|
A|----------------------|----------------------|----------------------|-----------3-3-3-3------|
E|----------------------|----------------------|----------------------|------------------------|


[Strophe 1]
G G          C       D
    Du magst Pina Colada
G G          C             D
    Und du brennst so für Lava
G G          C             D
    Sagst du reist in die Südsee
G G      C  C
Oh-oh-oh-au-we


[Strophe 2]
G G           C             D
    Sagst heiratst an Hawaiianer
G G          C              D
    Mit am Hemd und guaten Karma
G G              C D G
  Drüben in der Südsee


[Bridge]
G                   D
   Oh-oh-oh-oh-oh-oh
G         C         D
   Oh-oh-oh-oh-oh-oh
G         C         D
   Oh-oh-oh-oh-oh-oh
G         C         D
   Oh-oh-oh-oh-oh-oh
G         C         D
   Oh-oh-oh-oh-oh-oh

                 G G                C C C C D  D
E|-----3---------3-3----|-----3-----0-0-0-0-2--2-|
B|---0---1-0-1---0-0----|---0---1-0-1-1-1-1-1--1-|
G|--0-0-----2-22-0-0----|--0-0------0-0-0-0-2--2-|
D|---------------0-0----|-----------2-2-2-2-0--0-|
A|---------------2-2----|-----------3-3-3-3------|
E|---------------3-3----|------------------------|


[Strophe 3]
G G                    C          D
    Trinkst sex on the beach im Pyjama
G G        C             D
    Redst nur von den Bahamas
G G           C                D
    Bist in Gedanken schon so far away
G           D
Oh-oh-oh-oh-we


[Strophe 4]
G G               C        D
    Mit deinem Piraten-Bandana
G G         C              D
    So weit weg von jedem Drama
G G             C D G
  Drüben in der Südsee
G G                    C          D
Oh-oh-oh-oh-oh-oh


[Bridge]
G                   D
   Oh-oh-oh-oh-oh-oh
G         C         D
   Oh-oh-oh-oh-oh-oh
G         C         D
   Oh-oh-oh-oh-oh-oh
G         C         D
   Oh-oh-oh-oh-oh-oh
G         C         D
   Oh-oh-oh-oh-oh-oh

                 G G                C C C C D  D
E|-----3---------3-3----|-----3-----0-0-0-0-2--2-|
B|---0---1-0-1---0-0----|---0---1-0-1-1-1-1-1--1-|
G|--0-0-----2-22-0-0----|--0-0------0-0-0-0-2--2-|
D|---------------0-0----|-----------2-2-2-2-0--0-|
A|---------------2-2----|-----------3-3-3-3------|
E|---------------3-3----|------------------------|

G     C     D       C   
 Away, away, away, Oooh away
G     C     D       C  
 Away, away, away, Oh-oh-oh-oh-oh-oh


[Outro]
G                   D
   Oh-oh-oh-oh-oh-oh
G         C         D
   Oh-oh-oh-oh-oh-oh
G         C         D
   Oh-oh-oh-oh-oh-oh
G         C         D
   Oh-oh-oh-oh-oh-oh
G         C         D
   Oh-oh-oh-oh-oh-oh

                 G G
E|-----3---------3-3----|
B|---0---1-0-1-1-0-0----|
G|--0-0-----2-2--0-0----| 
D|---------------0-0----| 
A|---------------2-2----|
E|---------------3-3----|

            
            
Suggest correction
Creating personal tab
Creating personal tab
You can edit any tab online and save it as your Personal.

You can edit, replace or remove any tab part or add personal notes – all changes will be seen only by you.

Personal tabs can be accessed anytime from any device, even offline.
Learn more »
Give kudos to tab author, rate the tab!
1 2 3 4 5
comments
print report bad tab
guest
You may want to rate the tab now too:
select rating
Wanna post a correction for this tab? Suggest correction