Oops, an error
Loading. Please wait.

Im Your Captain Closer To Home bass

904 views 1 this week
no commentswrite comment
1 2 3 4 5
x 6
add to favorites
×
Save as Personal and add changes to this tab that will be seen only by you. Learn more ›
×
You can save this tab as Personal to edit and correct it or add notes. All changes will be seen only by you. Learn more »
launch autoscroll
font size
0
reset
guitar tuner
backing track
0:00
0:00
edit
Autoscroll
slow
fast
+/-
esc
set tempo
stop
Author
Difficulty
Tabbed by: 6METAL6BASSIST6
E-mail: petergriffinav@gmail.com

Tuning: EADG

G|----|
D|----|
A|----|
E|3-/-|

G|----------------------------------------------------------------|
D|----------------------------------------------------------------|
A|5-------------------------------5-------------------------------|
E|----------------------------3-/-----------------------------3-/-|

G|--------------------------------|
D|--------------------------------|
A|5-------------------------------|
E|----------------------------3-/-|

G|----------------------------------------------------------------|
D|----5-3---2-------------------------5-3---2---------------------| x4
A|5-5-----------5---5-3-0---0-3---5-5-----------5---5-3-0---0-3---|
E|----------------------------------------------------------------|

0:33

G|----------------------------------------------------------------|
D|----------------------------7-/-12------------------------------|
A|5---------------------------------------------------------------|
E|----------------------------------------------------------------|

G|----------------------------------------------------------------|
D|----------------------------------------------------------------| x4
A|5-------5-----------------------5-------5-----------------------|
E|----------------------------------------------------------------|

G|--------------------------------|
D|--------------------------------|
A|5-------5-----------------------|
E|--------------------------------|

1:00

G|----------------------------------------------------------------|
D|----------------------------------------------------------------|
A|5---------0-5-3---3---------3---5-----0-5-0-5-3-------------3---|
E|--------------------3-4-5-------------------------0-1-2-3-------|

G|----------------------------------------------------------------|
D|----------------------------------------------------------------| x3
A|5-----0-5-0-5-3---3-------3-4---5-----0-5-0-5-3---3---------3---|
E|--------------------3-4-5---------------------------1-2-3-------|

G|--------------------------------|
D|--------------------------------|
A|5-----0-5-0-5-3---3---------3---|
E|--------------------3-4-5-------|

1:23

G|----------------------------------------------------------------|
D|----------------------------------------------------------------| x2
A|5-----0-5-0-5-3---3-------0-3---5-----0-5-0-5-3---3---------3---|
E|--------------------1-2-3---------------------------3-4-5-------|

G|----------------------------------------------------------------|
D|----------------------------------------------------------------| x4
A|5-----0-5-0-5-3---3---------3---5-----0-5-0-5-3---3-------3-4---|
E|--------------------1-2-3---------------------------3-4-5-------|

G|----------------------------------------------------------------|
D|----------------------------------------------------------------| x2
A|5-----0-5-0-5-3---3---------3---5-----0-5-0-5-3---3---------3---|
E|--------------------1-2-3---------------------------3-4-5-------|

2:04

G|----------------------------------------------------------------|
D|--------6---5-------3-------------------------------------------| x2
A|5---0-----------------------5-------0---3-------2---------------|
E|--------------------------------------------------------3-/-----|

2:13

G|----------------------------------------------------------------|
D|----------------------------------------------------------------|
A|5-------------0-5---------0-5---1---------------1---3-------4---|
E|----------------------------------------------1-----------------|

G|----------------------------------------------------------------|
D|----------------------------------------------------------------|
A|5-------------0-5---5---0-5-0---1---------------1---3-------4---|
E|----------------------------------------------1-----------------|

G|----------------------------------------------------------------|
D|----------------------------------------------------------------|
A|5-------------0-5---5---0-5-0---1---------------1---1-----------|
E|----------------------------------------------1-----------------|

G|--------------------------------------------------9-------9-----|
D|3-------3-3-----3---3---3---3-/-7-------7-7-----7---7---7---7---|
A|----3-------3-----3-------3---------7-------7-------------------|
E|----------------------------------------------------------------|

2:37

G|----------------------------------------------------------------|
D|----------------------------------------------------------------|
A|5-------------0-5-------0-5-0---1---------------1---3-------4---|
E|----------------------------------------------1-----------------|

G|------------------------7---------------------------------------|
D|--------------------5/7-----7-\---------------------------------|
A|5-------------0-5---------------1---------------1---3-------4---|
E|----------------------------------------------1-----------------|

G|------------------------7---------------------------------------|
D|--------------------5/7-----7-\---------------------------------|
A|5-------------0-5---------------1---------------1---1-----------|
E|----------------------------------------------1-----------------|

G|----5-------5-------5---5---5-------9-------9-------9---9---7---|
D|3-------3-3-----3-3---3---3---/-7-------7-7-----7-7---7-7-7-----|
A|----------------------------------------------------------------|
E|----------------------------------------------------------------|

2:58

G|----------------------------------------------------------------|
D|----5-3---2-------------------------5-3---2---------------------| x4
A|5-5-----------5---5-3-0---0-3---5-5-----------5---5-3-0---0-3---|
E|----------------------------------------------------------------|

G|------------------------------------------------------------------|
D|----------------------------7-/-12---------------12-12-12-12--12\-|
A|5-----------------------------------------------------------------|
E|------------------------------------------------------------------|

3:20

G|----------------------------------------------------------------|
D|----------------------------------------------------------------|
A|5---------0-5-3---3-3-------0-3-5-------5-0-5-3---3---------3---|
E|----------------------------------------------------1-2-3-------|

G|----------------------------------------------------------------|
D|----------------------------------------------------------------|
A|5-----0-5-0-5-3-----------3-4---5-----0-5-0-5-3---3---------3---|
E|------------------3-3-4-5---------------------------1-2-3-------|

G|----------------------------------------------------------------|
D|----------------------------------------------------------------|
A|5-----0-5-0-5-3---3---------3---5-----0-5-0-5-3---3---------3---|
E|--------------------3-4-5---------------------------1-2-3-------|

G|----------------------------------------------------------------|
D|----------------------------------------------------------------|
A|5-----0-5-0-5-3---3-------3-4---5-----0-5-0-5-3---3---------3---|
E|--------------------3-4-5---------------------------1-2-3-------|

3:45

G|----------------------------------------------------------------|
D|----------------------------------------------------------------| x4
A|5-------5-0-5-3---3---------3---5-----0-5-0-5-3---3---------3---|
E|--------------------3-4-5---------------------------1-2-3-------|

4:03

G|----------------------------------------------------------------|
D|----------------------------------------------------------------| x3
A|5-------5-0-5-3---3---------3---5-----0-5-0-5-3---3---------3---|
E|--------------------3-4-5---------------------------1-2-3-------|

G|----------------------------------------------------------------|
D|----------------------------------------------------------------|
A|5-------5-0-5-3---3-------3-4---5-----0-5-0-5-3---3---------3-/-|
E|--------------------3-4-5---------------------------1-2-3-------|

4:23

    Closer To Home(Medley)

G|----------------------------------------------------------------|
D|----------------------------------------------------------------|
A|5-------------------------------------------------------5-------|
E|----------------------------------------------------------------|

G|----------------------------------------------------------------|
D|----------------------------------------------------------------|
A|3---------------------------------------------------1---2---3-/-|
E|------------------------------------0---1---2---3---------------|

G|----------------------------------------------------------------|
D|--------------------------------12------------------------------|
A|5---------------------/-12--------------12--\---5-\-------------|
E|--------------------------------------------------------3-------|

G|----------------------------------------------------------------|
D|----------------------------------------------------------------|
A|3-------------------------------3-------------------1---2---3-/-|
E|----------------------------3-------0---1---2---3---------------|

G|----------------------------------------------------------------|
D|----------------------------------------------------------------|
A|5-------------------------------------------0---5---------------|
E|--------------------------------------------------------5-------|

G|----------------------------------------------------------------|
D|----------------------------------------------------------------|
A|3-------------------------------3-------------------1---2---3-/-|
E|----------------------------3-------0---1---2---3---------------|

4:54

G|----------------------------------------------------------------|.
D|--------------------------------12------------------------------|.
A|5---------------------/-12--------------12--\---5-\-------------|.
E|--------------------------------------------------------3-------|.
                                                                   . x3
G|----------------------------------------------------------------|.
D|----------------------------------------------------------------|.
A|3-------------------------------3-------------------1---2---3-/-|.
E|----------------------------3-------0---1---2---3---------------|.

G|----------------------------------------------------------------|
D|--------------------------------12------------------------------|
A|5---------------------/-12--------------12--\---5-\-------------|
E|--------------------------------------------------------3-------|

G|----------------------------------------------------------------|
D|----------------------------------------------------------------|
A|3---3-----------3---3---3-------3---3---3-------3---3---4---4---|
E|----------------------------3---------------3-------------------|

5:37

G|----------------------------------------------------------------|
D|----------------------------------------------------------------|
A|5---5-----------5---5-----------5---5-----------5-------5-------|
E|------------5---------------5---------------5-------5-------5---|

G|----------------------------------------------------------------|
D|----------------------------------------------------------------|
A|3---3-----------3---3-----------3---3-----------3---3---4---4---|
E|------------3---------------3---------------3-------------------|

G|------------------------------------------------7---------------|
D|------------------------------------------/-7-------7-\---------|
A|5---5-----------5---5-----------5---5---5-----------------------|
E|------------5---------------5-------------------------------5---|

G|----------------------------------------------------------------|
D|----------------------------------------------------------------|
A|3---3-----------3---3-----------3-------------------1---2---3---|
E|------------3---------------3-------0---1---2---3---------------|

5:55

G|------------------------------------------------7---------------|
D|------------------------------------------/-7-------7-\---------|
A|5---5-----------5---5-----------5---5-------------------5-------|
E|------------5---------------5-------------------------------5---|

G|----------------------------------------------------------------|
D|----------------------------------------------------------------|
A|3---3-----------3---3-----------3---------------3-------4-------|
E|------------3---------------3---------------3-------4-------5---|

G|------------------------------------------------7---------------|
D|------------------------------------------/-7-------7-\---------|
A|5---5-----------5---5-----------5---5-------------------5-------|
E|------------5---------------5-------------------------------5---|

G|----------------------------------------------------------------|
D|----------------------------------------------------------------|
A|3---3-----------3---3-----------3-------------------1---2---3---|
E|------------3---------------3-------0---1---2---3---------------|

6:16

G|----------------------------------------------------------------|.
D|----------------------------------------------------------------|.
A|5---5-----------5---5-----------5---5-----------5---5-----------|.
E|------------5---------------5---------------5---------------5---|.
                                                                   . x2
G|----------------------------------------------------------------|.
D|----------------------------------------------------------------|.
A|3---3-----------3---3-----------3-------------------1---2---3-/-|.
E|------------3---------------3-------0---1---2---3---------------|.

G|------------------------------------------------7---------------|
D|------------------------------------------/-7-------7-\---------|
A|5---5-----------5---5-----------5---5-----------------------5---|
E|------------5---------------5-----------------------------------|

G|----------------------------------------------------------------|
D|----------------------------------------------------------------|
A|3---3-----------3---3-----------3-------------------1---2---3---|
E|------------3---------------3-------0---1---2---3---------------|

G|------------------------------------------------------------7---|
D|--------------------------------------------------------5/7-----|
A|5---5-----------5---5-----------5---5-----------5---5-----------|
E|------------5---------------5---------------5-------------------|

G|----------------------------------------------------------------|
D|----------------------------------------------------------------|
A|3---3-----------3---3-----------3---3---3---3---4---4---4---4---|
E|------------3---------------3-----3---3---3---3---4---4---4-----|

6:53

G|--------------------------------------------------------7-------|
D|----------------------------------------------------5/7-----7-\-|
A|5---5-----------5---5-----------5---5-----------5---------------|
E|------------5---------------5---------------5-------------------|

G|----------------------------------------------------------------|
D|----------------------------------------------------------------|
A|3---3-----------3---3-----------3---3---3---3---4---4---4-------|
E|------------3---------------3-----3---3---3---3---4---4---5-5---|

G|----------------------------------------------------------------|
D|----------------------------------------------------------------|
A|5---5-----------5---5-----------5---5-----------------------5---|
E|------------5---------------5---------------5---2---2---5-------|

G|----------------------------------------------------------------|
D|----------------------------------------------------------------|
A|3---3-----------3---3-----------3-------------------1---2---3---|
E|------------3---------------3-------0---1---2---3---------------|

7:10

G|----------------7---7---------------------------7---7-----------|
D|----------/-7-----------------------------/-7-----------7-\-----|
A|5---5---------------------------5---5---------------------------|
E|----------------------------------------------------------------|

G|----------------5---5-------------------------------------------|
D|----------/-5---------------5-\---------------------------------|
A|3---3---------------------------3---3---------------1---2---3---|
E|----------------------------------------1---2---3---------------|

G|----------------7-------------------------------7---------------|
D|----------/-7-----------7-\---------------/-7-------7-\---------|
A|5---5---------------------------5---5-------------------5-------|
E|------------------------------------------------------------5---|

G|----------------------------------------------------------------|
D|----------------------------------------------------------------|
A|3---3-----------3---3-----------3-------------------1---2---3---|
E|------------3---------------3-------0---1---2---3---------------|

7:31

G|----------------------------------------------------------------|
D|----------------------------------------------------------------|
A|5---5-----------5---5-----------5---5-----------5---5-----------|
E|------------5---------------5---------------5---------------5---|

G|----------------------------------------------------------------|
D|----------------------------------------------------------------|
A|3---3-----------3---3-----------3---3---3---3---4---4---4---4---|
E|------------3---------------------3---3---3---3---4---4---4---4-|

G|--------------------------------------------------------7-5-----|
D|----------------------------------------------------7-------7---|
A|5---5-----------5---5-----------5---5---------/-5---------------|
E|------------5---------------5---------------5-------------------|

G|----------------------------------------------------------------|
D|----------------------------------------------------------------|
A|3---3-----------3---3-----------3---3---3---3---3---3---4---4---|
E|------------3---------------3-----3-------3-------3-------4-----|

7:50

G|----------------------------------------------------------------|
D|----------------------------------------------------------------|
A|5---5-----------5---5-----------5---5-----------5---5-----------|
E|------------5---------------5---------------5---------------5---|

G|----------------------------------------------------------------|
D|----------------------------------------------------------------|
A|3---3-----------3---3-----------3-------------------1---2---3---|
E|------------3---------------3-------0---1---2---3---------------|

G|------------------------------------------------7---------------|
D|------------------------------------------/-7-------7-\---------|
A|5---5-----------5---5-----------5---5-------------------5-------|
E|------------5---------------5-------------------------------5---|

G|----------------------------------------------------------------|
D|----------------------------------------------------------------|
A|3---3-----------3---3-----------3-------------------1---2---3---|
E|------------3---------------3-------0---1---2---3---------------|

8:08

G|----------------------------------------------------------------|
D|----------------------------------------------------------------|
A|5---5-----------5---5-----------5---5-----------5---5---5---5---|
E|------------5---------------5---------------5-----5-------5-----|

G|----------------------------------------------------------------|
D|----------------------------------------------------------------|
A|3---3-----------3---3-----------3-------------------1---2---3---|
E|------------3---------------3-------0---1---2---3---------------|

G|----------------------------------------------------------------|
D|----------------------------------------------------------------|
A|5---5-----------5---5-----------5---5-----------5---5-----------|
E|------------5---------------5---------------5---------------5---|

G|----------------------------------------------------------------|
D|----------------------------------------------------------------|
A|3---3-----------3---3-----------3---3-----------3---3-----------|
E|------------3---------------3---------------3---------------3---|

8:25

G|----------------------------------------------------------------|
D|----------------------------------------------------------------|
A|5---5-----------5---5-----------5---5-----------5---5-----------|
E|------------5---------------5---------------5---------------5---|

G|----------------------------------------------------------------|
D|----------------------------------------------------------------|
A|3---3-----------3---3-----------3---3---3---3---4---4---4---4---|
E|------------3---------------3-----3-------3-------4-------4-----|

G|----------------------------------------------------------------|
D|----------------------------------------------------------------|
A|5---5-----------5---5-----------5---5-----------5---5-------5---|
E|------------5---------------5---------------5-----5-------5-----|

G|----------------------------------------------------------------|
D|----------------------------------------------------------------|
A|3---3-----------3---3-----------3-------------------1---2---3---|
E|------------3---------------3-------0---1---2---3---------------|

8:45

G|--------------------------------------------------------7-------|
D|--------------------------------------------------/-7-----7-----|
A|5---5-----------5---5-----------5---5-----------5-----------5---|
E|------------5---------------5---------------5-------------------|

G|----------------------------------------------------------------|
D|----------------------------------------------------------------|
A|3---3-----------3---3-----------3---3-------3-------3-------3---|
E|------------3---------------3-----3-----3-3-----3-3-----3-3-----|

G|----------------------------------------------------------------|
D|----------------------------------------------------------------|
A|5---5-----------5---5-----------5---5-----------5---5-----------|
E|------------5---------------5---------------5---------------5---|

G|----------------------------------------------------------------|
D|----------------------------------------------------------------|
A|3---3-----------3---3-----------3-------------------1---2---3---|
E|------------3---------------3-------0---1---2---3---------------|

9:02

G|----------------------------------------------------------------|
D|----------------------------------------------------------------|
A|5---5-------5---5---5-----------5---5-----------5---5-----5-----|
E|----------------------------5---------------5-----------5---5---|

G|----------------------------------------------------------------|
D|----------------------------------------------------------------|
A|3---3-----------3---3-----------3---------------1-2-3---1-2-3---|
E|------------3---------------3-------0---1---3-------------------|

G|------------------------------------------------7---------------|
D|------------------------------------------/-7-------7-\---------|
A|5---5-----------5---5-----------5---5-------------------5-------|
E|------------5---------------5-------------------------------5---|

G|----------------------------------------------------------------|
D|----------------------------------------------------------------|
A|3---3-----------3---3-----------3---3---3---3---4---4---4---4---|
E|------------3---------------3-----3-------3-------4-------4-----|

9:21

G|------------------------------------------------7---------------|
D|------------------------------------------/-7-------7-\---------|
A|5---5-----------5---5-----------5---5-------------------5-------|
E|------------5---------------5-------------------------------5---|

G|--------------------------------------------------------4---5---|
D|----------------------------------------3---4---5---5-----------|
A|3---3-----------3---3-----------3-------------------------------|
E|------------3---------------3-----------------------------------|

G|7---------------------------------------------------------------|
D|----------------------------------------------------------------|
A|----------------5---5-----------5---5-----------5---5-----------|
E|------------5---------------5---------------5---------------5---|

G|----------------------------------------------------------------|
D|----------------------------------------------------------------|
A|3---3-----------3---3-----------3---3-----------3---3-----------|
E|------------3---------------3---------------3---------------5---|

G|--------------------------------------------------------7-------|
D|--------------------------------------------------/-7-------7---|
A|5---5-----------5---5-----------5---5-----------5---------------|
E|------------5---------------5---------------5-------------------|

G|----------------------------------------------------------------|
D|----------------------------------------------------------------|
A|3---3-----------3---3-----------3---------------1-2-3---1-2-3---|
E|------------3---------------3-------0---1---3-------------------|

G|----------------------------------------------------------------|
D|----------------------------------------------------------------| fades out here.
A|5---5-----------5---5-----------5---5-----------5---5-----------|
E|------------5---------------5---------------5---------------5---|

            
            
Suggest correction
Creating personal tab
Creating personal tab
You can edit any tab online and save it as your Personal.

You can edit, replace or remove any tab part or add personal notes – all changes will be seen only by you.

Personal tabs can be accessed anytime from any device, even offline.
Learn more »
comments
print report bad tab
guest
You may want to rate the tab now too:
select rating
Wanna post a correction for this tab? Suggest correction