Oops, an error
Loading. Please wait.

Were An American Band Tab

version 2
version 2

Whole song

29,881 views 57 this week
2 commentsread comments
1 2 3 4 5
x 12
add to favorites
launch autoscroll
font size
0
reset
how to read this tab
guitar tuner
backing track
0:00
0:00
×
Best way to learn
"Were An American Band"
Autoscroll
slow
fast
+/-
esc
set tempo
stop
[Intro]
E|------------------------------------------------------------------|
B|---------------------------------------------8------------8-------|
G|--5h7-7-7~~--5h7-7-5h7-7-5h7-7-5h7-7-7h9~--9---9--7-7h9-9---9--7--|
D|------------------------------------------------------------------|
A|------------------------------------------------------------------|
E|------------------------------------------------------------------|

E|------------------------------------------------------------------|
B|---------------------------------qb6--qb6------------6------------|
G|-5~--5~~--5---7---5h7-5h7-5h7-5h7---------7p5----5h7---7--5h7-----|
D|------------7----------------------------------7------------------|
A|------------------------------------------------------------------|
E|------------------------------------------------------------------|

[Intro]
(Riff)
E|---------------------------------------------------------------------|
B|---------------------------------------------------------------------|
G|--7----7----7----7----7----7----7----7----5----5----5----5----5----5-|
D|--7----7----7----7----7----7----7----7----5----5----5----5----5----5-|
A|--5----5----5----5----5----5----5----5----3----3----3----3----3----3-|
E|---------------------------------------------------------------------|

E|---------------------------------------------------------------------|
B|---------------------------------------------------------------------|
G|--5----5----3----3----3----3----5----5----5----5----7----7----7----5-|
D|--5----5----3----3----3----3----5----5----5----5----7----7----7----5-|
A|--3----5----1----1----1----1----3----3----3----3----5----5----5----3-|
E|---------------------------------------------------------------------|

E|------------------|
B|------------------|
G|-7----7----7----7-|
D|-7----7----7----7-|
A|-5----5----5----5-|
E|------------------|

[Verse]
E|------------------------------------------------------------|
B|------------------------------------------------------------|
G|-7---7--x--x--7--7-7-------5h7---5--5-5--5-5---12--10--5--5-|
D|-7---7--x--x--7--7-7---5h7-------5--5-5--5-5---12--10--5--5-| (x2)
A|-5---5--x--x--5--5-5-------------3--3-3--3-3---10--8---3--3-|
E|------------------------------------------------------------|

[Pre-Chorus]
E|-3--3--3--3-------------------------------------|
B|-3--3--3--3-------------------------------------|
G|-4--4--4--4--7--7--7--7--5--5--5--5--7--7--7--7-|
D|-5--5--5--5--7--7--7--7--5--5--5--5--7--7--7--7-| (x2, but on the scond 
A|-5--5--5--5--5--5--5--5--3--3--3--3--5--5--5--5-|  time, play the last
E|-3--3--3--3-------------------------------------|  C5, and D5, by eigth
                                                      notes)

[Chorus]
E|--------------------------------------------------------------------------|
B|--------------------------------------------------------------------------|
G|--7--7--7--7--7--7--7--7--5--5--5--5--5--5--5--5--3--3--3--3--5--5--5--5--|
D|--7--7--7--7--7--7--7--7--5--5--5--5--5--5--5--5--3--3--3--3--5--5--5--5--|
A|--5--5--5--5--5--5--5--5--3--3--3--3--3--3--3--3--1--1--1--1--3--3--3--3--|
E|--------------------------------------------------------------------------|

E|--------------------------|
B|--------------------------|
G|--7--7--7--7--7--7--7--7--|
D|--7--7--7--7--7--7--7--7--|
A|--5--5--5--5--5--5--5--5--|
E|--------------------------|

[Solo]
E|--------------------------------------------------------------10-------10-|
B|--7h8-7h8~--7--8--7----------------------------------------10----10-------|
G|--------------------7---------------------------------fb12---------fb13---|
D|----------------------7---5p4h5p4h5p4h5p4h5--5/7~-------------------------|
A|--------------------------------------------------------------------------|
E|--------------------------------------------------------------------------|

E|--13p10---10--13p10---10--13p10--10-13p10--10--13p10--10--13p10--10--|
B|--------13----------13---------13--------13---------13---------13----|
G|---------------------------------------------------------------------|
D|---------------------------------------------------------------------|
A|---------------------------------------------------------------------|
E|---------------------------------------------------------------------|

E|--13p10--10--13p10--10----10~------10-10-------------------10-10-----|
B|-------13---------13----13----fb13------rb10--10--13--fb13------rb10-|
G|---------------------------------------------------------------------|
D|---------------------------------------------------------------------|
A|---------------------------------------------------------------------|
E|---------------------------------------------------------------------|

E|----------------|
B|--10------------|
G|-----12--10-----|
D|------------12--|      
A|----------------|
E|----------------|


************************************

| h  Hammer-on
| ~  Vibrato
| p  Pull-off
| x  Dead note
| /  Slide up

************************************
Suggest correction
comments
print report bad tab
2 comments total.
0 reply
Brandon1993 802 Jun 24, 2010 05:53 AM

druiging? Hmmmmmmm didn't know that was a word.

0 reply
jasonrain81 10 Jul 03, 2014 10:10 AM

Lack of accuracy.

guest
You may want to rate the tab now too:
select rating
Wanna post a correction for this tab? Suggest correction