Oops, an error
Loading. Please wait.

At Midnight They Get Wise Bass Tab

719 views 1 this week
no commentswrite comment
1 2 3 4 5
3 more votes to show rating
add to favorites
launch autoscroll
font size
0
reset
guitar tuner
Autoscroll
slow
fast
+/-
esc
set tempo
stop
Help us to improve Ultimate-Guitar.com Take our survey!
×
Author
Difficulty
Tuning
intermediate
C F A# D# G C
Grand Magus - At Midnight They Get Wise (Hammer Of The North)
200 BPM - 4/4
4-string bass - C-standard tuning (CFA#D#)
Transcribed 100% by ear by Krakenbrau
Please send questions, comments, corrections to krakenbrau@gmail.com.

Legend:                 Timing:
\ - slide/bend down     W - whole note          W. - dotted whole note
/ - slide/bend up       H - half note           H. - dotted half note
b - bend                Q - quarter note        Q. - dotted quarter note
h - hammer-on           E - eighth note         E. - dotted eighth note
p - pull-off            S - sixteenth note      S. - dotted sixteenth note
~ - sustain             N - thirty-second note  N. - dotted thirty-second note
X - ghost note          T*- thirty-second note triplet (3/S)
                        T - sixteenth note triplet (3/E)
                        T.- eighth note triplet (3/Q)
                        T:- quarter note triplet (3/H)

'DS al Coda' - Return to the bar marked 'S' and play from there, until instructed to
               go to the Coda.
'Rit.' - Slow down

Notes:
This should be pretty accurate.  There are one or two little variations that I may
have missed, and I could be wrong about the Pre-Solo section.  Played with
a pick, probably.


Intro
D#|-----|---------|---------|-----------|---------|---------|---------|-----------|
A#|-----|---------|---------|-----------|---------|---------|---------|-----------|
F |-----|---------|---------|-----------|---------|---------|---------|-----------|
C |-----|-0-------|---------|-0-0-------|---------|-0~~~~~~~|~~~~~~~~-|-0-0-------|
          E                   E E                   W        (W)        E E

Pre-Verse 1/2
                |S                 |             1,2,3|4
D#|-------------|------------------|------------------|------------|
A#|-----------1-|*-2-2-2-2-2-2-2-2-|-2-2-2-2-------1-*|-2-2-0~~~~~-|
F |-----3-2-3---|*-----------------|---------3-2-3---*|------------|
C |-------------|------------------|------------------|------------|
        E E E E    E E E E E E E E   E E E E E E E E    E E H.

Verse 1/2
                    x6|
D#|-------------------|-----------------|-----------------|
A#|*-2-2-2-2-2-2-2-2-*|-2-2-2-2-0-0-0-0-|-----------------|
F |*-----------------*|-----------------|-3-3-3-3-2-2-2-2-|
C |-------------------|-----------------|-----------------|
     E E E E E E E E    E E E E E E E E   E E E E E E E E
                    x4|
D#|-------------------|-----------------|-----------------|
A#|*-----------------*|-2-2-2-2-2-2-2-2-|-2-2-2-2-------1-|
F |*-0-0-0-0-0-0-0-0-*|-----------------|---------3-2-3---|
C |-------------------|-----------------|-----------------|
     E E E E E E E E    E E E E E E E E   E E E E E E E E

Pre-Chorus 1/2
D#|-----------------|-----------------|-----------------|-----------------|
A#|-2-2-2-2-2-2-2-2-|-2-2-2-2---------|-----------------|-----------------|
F |-----------------|---------3-3-3-3-|-2-2-2-2-2-2-2-2-|-2-2-2-2-3-3-3-3-|
C |-----------------|-----------------|-----------------|-----------------|
    E E E E E E E E   E E E E E E E E   E E E E E E E E   E E E E E E E E
                                                                                         To Coda 1
D#|-----------------|-----------------|-----------------|-----------------|-----------------|
A#|-----------------|-----------------|-----------------|-----------------|-----------------|
F |-2-2-2-2-2-2-2-2-|-2-2-2-2-0-0-0-0-|-2-2-2-2-2-2-2-2-|-2-2-2-2-3-3-3-3-|-2-2-2-2-2-2-2-2-|
C |-----------------|-----------------|-----------------|-----------------|-----------------|
    E E E E E E E E   E E E E E E E E   E E E E E E E E   E E E E E E E E   E E E E E E E E

Chorus 1 - Half-time feel
D#|---------|------------------|---------|-----------------|---------|
A#|---------|*---1h2---1h2-----|---------|---1h2---1h2-----|---------|
F |---------|*-----------------|-----1~~-|-----------------|-6\~-2~~-|
C |-3~~-2~~-|--0-----0-----0-0-|-3~~-----|-0-----0-----0-0-|---------|
    H   H      E E E E E E E E   H   H     E E E E E E E E   H   H

                                                |             1|2              | DS al Coda 1
D#|-----------------|---------|-----------------|--------------|---------------|
A#|---1h2---1h2-----|---------|-----------------|-------------*|-------------1-|
F |-----------------|-----1~~-|-2-2-2-2-2-------|------2//\\\-*|-2//\\-3-2-3---|
C |-0-----0-----0-0-|-3~~-----|-----------------|--------------|---------------|
    E E E E E E E E   H   H     E E E E E              H         H     E E E E

Coda 1 (Chorus 2) - Half-time feel
D#|---------|------------------|---------|-----------------|---------|
A#|---------|*---1h2---1h2-----|---------|---1h2---1h2-----|---------|
F |---------|*-----------------|-----1~~-|-----------------|-6\~-2~~-|
C |-3~~-2~~-|--0-----0-----0-0-|-3~~-----|-0-----0-----0-0-|---------|
    H   H      E E E E E E E E   H   H     E E E E E E E E   H   H

                                                |             1|2
D#|-----------------|---------|-----------------|--------------|---------------|
A#|---1h2---1h2-----|---------|-----------------|-------------*|---------------|
F |-----------------|-----1~~-|-2-2-2-2-2-------|-------------*|---------------|
C |-0-----0-----0-0-|-3~~-----|-----------------|-12\\\~~~-----|---------------|
    E E E E E E E E   H   H     E E E E E          W

Pre-Solo
              x6|
D#|-------------|-11-9-----------------|--------------------|
A#|*-----------*|------11-9------------|--------------------|
F |*-----------*|-----------12-10-8-10-|-12-10-8--------0---|
C |--2-2~-2-2~--|----------------------|---------11-9-7---7-|
     E Q. E Q.     E E  E E  E  E E  E    E  E E  E E E E E

Solo
  |SS               x4|                 x4|                 x3|
D#|-------------------|-------------------|-------------------|----------------|
A#|*-----------------*|*-----------------*|*-----------------*|----------------|
F |*-4-4-4-4-4-4-4-4-*|*-2-2-2-2-2-2-2-2-*|*-4-4-4-4-4-4-4-4-*|-4-4-4-4///\\\\-|
C |-------------------|-------------------|-------------------|----------------|
     E E E E E E E E     E E E E E E E E     E E E E E E E E    E E E H

                                                         |To Coda 2        |DSS al Coda 2
D#|------------------|-----------------|-----------------|-----------------|
A#|------------------|-----------------|-----------------|-----------------|
F |-0~~~-0-0-0-0-0-0-|-0-0-0-0-0-0-0-2~|~~-2-2-2-2-2-2-2-|-2-2-2-2-2-2-2-2-|
C |------------------|-----------------|-----------------|-----------------|
    Q    E E E E E E   E E E E E E E Q     E E E E E E E   E E E E E E E E

Coda 2 (Pre-Chorus 3)
D#|------------|-----------|-----------|------------------|-----------------|
A#|------------|-----------|-----------|*-----------------|-----------------|
F |------------|-----------|-----------|*-----------------|-----------------|
C |-7-7-7\\\\\-|-0~~~-2~~~-|-3~~~-5~~~-|--7-7-7-7-7-7-7-7-|-7-7-7-7-8-8-8-8-|
    E E H.       H    H      H    H       E E E E E E E E   E E E E E E E E

                    |                 1|
D#|-----------------|------------------|
A#|-----------------|-----------------*|
F |-----------------|-----------------*|
C |-7-7-7-7-7-7-7-7-|-7-7-7-7-5-5-5-5--|
    E E E E E E E E   E E E E E E E E

Chorus 3 - Half-time feel
  |2
D#|---------|------------------|---------|-----------------|---------|
A#|---------|*---1h2---1h2-----|---------|---1h2---1h2-----|---------|
F |---------|*-----------------|-----1~~-|-----------------|-6\~-2~~-|
C |-3~~-2~~-|--0-----0-----0-0-|-3~~-----|-0-----0-----0-0-|---------|
    H   H      E E E E E E E E   H   H     E E E E E E E E   H   H

                                                |             1|2
D#|-----------------|---------|-----------------|--------------|---------------|
A#|---1h2---1h2-----|---------|-----------------|-------------*|---------------|
F |-----------------|-----1~~-|-2-2-2-2-2-------|-------------*|---------------|
C |-0-----0-----0-0-|-3~~-----|--------------0//|/12\\\~~~-----|---------------|
    E E E E E E E E   H   H     E E E E E    Q     W

Outro/Ending
                                   |Rit.
D#|------------------|-------------|---------|---------|----------|------------||
A#|*-----------------|------------*|---------|---------|----------|------------||
F |*-----------------|------------*|---------|---------|----------|----------7-||
C |--7-7-7-7-7-------|-------------|-7~~-5~~-|-3~~-2~~-|-0~~~~~~~~|~~~~/12\\\--||
     E E E E E                       H   H     H   H     W.              Q.  E
Suggest correction
Give kudos to tab author, rate the tab!
1 2 3 4 5
comments
print report bad tab
guest
You may want to rate the tab now too:
select rating
Wanna post a correction for this tab? Suggest correction