Oops, an error
Loading. Please wait.

Black Sails tab

319 views 9 this week
no commentswrite comment
1 2 3 4 5
3 more votes to show rating
add to favorites
×
Save as Personal and add changes to this tab that will be seen only by you. Learn more ›
×
You can save this tab as Personal to edit and correct it or add notes. All changes will be seen only by you. Learn more »
launch autoscroll
font size
0
reset
how to read this tab
guitar tuner
edit
Autoscroll
slow
fast
+/-
esc
set tempo
stop
Black Sails by Grand Magus

Tab by Daljones
This song is tuned to Drop C, so your strings should be tuned, from highest to lowest, like this:

d-A-F-C-G-C 

[Intro]
d|------------------------------------------------------------------------------|
A|------------------------------------------------------------------------------|
F|--7--------------/12-----10-----7-------------7-7-7-3---3---------------------|
C|--7--------------/12-----10-----7-------------7-7-7-3---3---------------------|
G|--5--------------/10-----8------5-------------5-5-5-1---1---------------------|
C|------------------------------------------------------------------------------|

d|------------------------------------------------------------------------------|
A|------------------------------------------------------------------------------|
F|--7----------/12-----10-------9--------9--------9----------8------------------|
C|--7----------/12-----10-------10-10-10-10-10-10-10-10-10---8------------------|
G|--5----------/10-----8-------------------------------------6------------------|
C|------------------------------------------------------------------------------|
                                                                               2x

[Verse Riff 1]
d|------------------------------------------------------------------------------|
A|------------------------------------------------------------------------------|
F|------------------------------------------------------------------------------|
C|------------------------------------------------------------------------------|
G|--5-----8-----10----17-----5-----8-----10----17-------------------------------|
C|--0-0-0---0-0---0-0----0-0-0-0-0---0-0---0-0----------------------------------|
                                             
d|------------------------------------------------------------------------------|
A|------------------------------------------------------------------------------|
F|--3----------------3-----------3-----------3------------5-------5-------------|
C|--3----------------3-----------3-----------3------------5-------5-------------|
G|--1----------------1---1---1---1---1---1---1---1---1----3-------3-------------|
C|------------------------------------------------------------------------------|
                                                                                2x

[Pre-Chorus 1]
d|------------------------------------------------------------------------------|
A|------------------------------------------------------------------------------|
F|------------------------------------------------------------------------------|
C|--3--------------------------------------------3-----------3-----5------------|
G|--3--------------------------------------------3-----------3-----5------------|
C|--3--------------------------------------------3-----------3-----5------------|

d|------------------------------------------------------------------------------|
A|------------------------------------------------------------------------------|
F|------------------------------------------------------------------------------|
C|-----------------------------3------------------------------------------------|
G|--5-----5-----5-----5-3 h 5--------5-----5-----5------------------------------|
C|--0-0-0-0-0-0-0-0-0-0----------0-0-0-0-0-0-0-0-0-0-0--------------------------|
                                                                                2x

[Pre-Chorus 2]
d|------------------------------------------------------------------------------|
A|------------------------------------------------------------------------------|
F|--5-------------------5----5/7---7---------7---7------------------------------|
C|--5-------------------5----5/7---7---------7---7------------------------------|
G|--3-------------------3----3/5---5---------5---5------------------------------|
C|-------------------------------0---0-0-0-0---0---0-0--------------------------|
                                                                                2x
d|------------------------------------------------------------------------------|
A|------------------------------------------------------------------------------|
F|--5---------------------------------------------------------------------------|
C|--5------------------3---------7----3-5/7-------------------------------------|
G|--3------------------3---------7----3-5/7-------------------------------------|
C|---------------------3---------7----3-5/7-------------------------------------|

d|------------------------------------------------------------------------------|
A|------------------------------------------------------------------------------|
F|------------------------------------------------------------------------------|
C|------------------------------------------------------------------------------|
G|--5-----8-----10----17-----5-----8-----10----17-------------------------------|
C|--0-0-0---0-0---0-0----0-0-0-0-0---0-0---0-0----------------------------------|
                                            

d|------------------------------------------------------------------------------|
A|------------------------------------------------------------------------------|
F|------------------------------------------------------------------------------|
C|--3--------------------------------------------3-----3-----3-----5---5--------|
G|--3--------------------------------------------3-----3-----3-----5---5--------|
C|--3--------------------------------------------3-3-3-3-3-3-3-3-3-5---5--------|

[Chorus]
d|------------------------------------------------------------------------------|
A|----------------------8-------------------------------------------------------|
F|--7-----------------7---7--5----7----------7-----3----3-----------------------|
C|--7-----------------5------5----7----------7-----3----3-----------------------|
G|--5-----------------5------3----5----------5-----1----1-----------------------|
C|--0-----------------5-----------0----------0-0-0------------------------------|

d|------------------------------------------------------------------------------|
A|----------------------8---------5-----5-----5---------------------------------|
F|--7-----------------7---7--5----5-5-5-5-5-5-5-5-5--8----8---------------------|
C|--7-----------------5------3-----------------------8----8---------------------| 
G|--5-----------------5------3-----------------------6----6---------------------|
C|--0-----------------5------3--------------------------------------------------|

d|------------------------------------------------------------------------------|
A|----------------------8-----------------8----------------5-----5-----5--------|
F|--7-----------------7---7--5----7-----7---7-----5---5----5-5-5-5-5-5-5-5-5---8|
C|--7-----------------5------5----7-----5---------3---3------------------------8|
G|--5-----------------5------3----5-----5---------3---3------------------------6|
C|--0-----------------5-----------0-----5---------3---3-------------------------|

[Pre-Chorus 1]
d|------------------------------------------------------------------------------|
A|------------------------------------------------------------------------------|
F|------------------------------------------------------------------------------|
C|--3--------------------------------------------3-----------3-----5------------|
G|--3--------------------------------------------3-----------3-----5------------|
C|--3--------------------------------------------3-----------3-----5------------|

d|------------------------------------------------------------------------------|
A|------------------------------------------------------------------------------|
F|------------------------------------------------------------------------------|
C|-----------------------------3------------------------------------------------|
G|--5-----5-----5-----5-3 h 5--------5-----5-----5------------------------------|
C|--0-0-0-0-0-0-0-0-0-0----------0-0-0-0-0-0-0-0-0-0-0--------------------------|
                                                                                2x

[Pre-Chorus 2]
d|------------------------------------------------------------------------------|
A|------------------------------------------------------------------------------|
F|--5-------------------5----5/7---7---------7---7------------------------------|
C|--5-------------------5----5/7---7---------7---7------------------------------|
G|--3-------------------3----3/5---5---------5---5------------------------------|
C|-------------------------------0---0-0-0-0---0---0-0--------------------------|
                                                                                2x
d|------------------------------------------------------------------------------|
A|------------------------------------------------------------------------------|
F|--5---------------------------------------------------------------------------|
C|--5------------------3---------7----3-5/7-------------------------------------|
G|--3------------------3---------7----3-5/7-------------------------------------|
C|---------------------3---------7----3-5/7-------------------------------------|

d|------------------------------------------------------------------------------|
A|------------------------------------------------------------------------------|
F|------------------------------------------------------------------------------|
C|------------------------------------------------------------------------------|
G|--5-----------8-----------10-----------17-------------------------------------|
C|--0---0---0-------0---0--------0---0------------------------------------------|
                                             2x

d|------------------------------------------------------------------------------|
A|------------------------------------------------------------------------------|
F|------------------------------------------------------------------------------|
C|--3--------------------------------------------3-----3-----3-----5---5--------|
G|--3--------------------------------------------3-----3-----3-----5---5--------|
C|--3--------------------------------------------3-3-3-3-3-3-3-3-3-5---5--------|

[Chorus]
d|------------------------------------------------------------------------------|
A|----------------------8-------------------------------------------------------|
F|--7-----------------7---7--5----7----------7-----3----3-----------------------|
C|--7-----------------5------5----7----------7-----3----3-----------------------|
G|--5-----------------5------3----5----------5-----1----1-----------------------|
C|--0-----------------5-----------0----------0-0-0------------------------------|

d|------------------------------------------------------------------------------|
A|--------------------8---------5-----5-----5-----------------------------------|
F|--7---------------7---7--5----5-5-5-5-5-5-5-5-5--8----8-----------------------|
C|--7---------------5------3-----------------------8----8-----------------------| 
G|--5---------------5------3-----------------------6----6-----------------------|
C|--0---------------5------3----------------------------------------------------|

d|------------------------------------------------------------------------------|
A|--------------------8-----------------8----------------5-----5-----5----------|
F|--7---------------7---7--5----7-----7---7-----5---5----5-5-5-5-5-5-5-5-5---8--|
C|--7---------------5------5----7-----5---------3---3------------------------8--|
G|--5---------------5------3----5-----5---------3---3------------------------6--|
C|--0---------------5-----------0-----5---------3---3---------------------------|
                                                                                x2
[Solo]
d|------------------------------------------------------------------------------|
A|-----\8--b10-r8-/12--b13-r12-/16--b17-r--16--19--b20--------------------------|
F|------------------------------------------------------------------------------|
C|------------------------------------------------------------------------------|
G|------------------------------------------------------------------------------|
C|------------------------------------------------------------------------------|

d|------------------------------------------------------------------------------|
A|--------17----20----19---17---------------------------------------------------|
F|----/16----16----16---16---16-18-18b20----------------------------------------|
C|------------------------------------------------------------------------------|
G|------------------------------------------------------------------------------|
C|------------------------------------------------------------------------------|

d|---------------------------7-----------------7--------------------------------|
A|------  7-----8-----10-----------10-----8-------10-----8--7-------------------|
F|----/7-----7-----7------7-----7------7-----7--------7-------------------------|
C|------------------------------------------------------------------------------|
G|------------------------------------------------------------------------------|
C|------------------------------------------------------------------------------|

d|------------------------------------------------------------------------------|
A|-15b17--15b17--r15------15b17---15b17----b19-------12-------------------------|
F|----------------------------------------------------------------------12-14-15|
C|--------------------------------------------------------12b14-r12---14--------|
G|------------------------------------------------------------------------------|
C|------------------------------------------------------------------------------|

d|------------------------------------------------------------------------------|
A|------------------------------------------------------------------------------|
F|------------------------------------12----14----15----19*p0--19*p0-17n19-17b19|
C|-19p0-14p0-12p0--------------12-------12----12----12--------------------------|
G|----------------14p12--12h4---------------------------------------------------|
C|------------------------------------------------------------------------------|
                                                          *pinch harmonic

[Verse Riff 1]
d|------------------------------------------------------------------------------|
A|------------------------------------------------------------------------------|
F|------------------------------------------------------------------------------|
C|------------------------------------------------------------------------------|
G|--5-----8-----10----17-----5-----8-----10----17-------------------------------|
C|--0-0-0---0-0---0-0----0-0-0-0-0---0-0---0-0----------------------------------|
                                             
d|------------------------------------------------------------------------------|
A|------------------------------------------------------------------------------|
F|--3----------------3---3---3---3---3---3---3---3---3----5-------5-------------|
C|--3----------------3---3---3---3---3---3---3---3---3----5-------5-------------|
G|--1----------------1---1---1---1---1---1---1---1---1----3-------3-------------|
C|------------------------------------------------------------------------------|
                                                                                2x

[Outro]
d|------------------------------------------------------------------------------|
A|------------------------------------------------------------------------------|
F|--7----------/12-----10-----7-------------7-7-7-3---3-------------------------|
C|--7----------/12-----10-----7-------------7-7-7-3---3-------------------------|
G|--5----------/10-----8------5-------------5-5-5-1---1-------------------------|
C|------------------------------------------------------------------------------|

d|------------------------------------------------------------------------------|
A|------------------------------------------------------------------------------|
F|--7----------/12-----10-------9--------9--------9----------8------------------|
C|--7----------/12-----10-------10-10-10-10-10-10-10-10-10---8------------------|
G|--5----------/10-----8-------------------------------------6------------------|
C|------------------------------------------------------------------------------|

d|------------------------------------------------------------------------------|
A|------------------------------------------------------------------------------|
F|--7----------/12-----10-----7------12-----10----9--------9---------9--------8-|
C|--7----------/12-----10-----7------12-----10----10-10-10-10-10-10-10-10-10--8-|
G|--5----------/10-----8------5-----/10-----8---------------------------------6-|
C|------------------------------------------------------------------------------|

d|------------------------------------------------------------------------------|
A|------------------------------------------------------------------------------|
F|--7--------------/12-----10-----7-------------7-7-7-3---3---------------------|
C|--7--------------/12-----10-----7-------------7-7-7-3---3---------------------|
G|--5--------------/10-----8------5-------------5-5-5-1---1---------------------|
C|------------------------------------------------------------------------------|

d|------------------------------------------------------------------------------|
A|------------------------------------------------------------------------------|
F|--7--------------/12-----10-------9--------9--------9----------8--------------|
C|--7--------------/12-----10-------10-10-10-10-10-10-10-10-10---8--------------|
G|--5--------------/10-----8-------------------------------------6--------------|
C|------------------------------------------------------------------------------|

d|------------------------------------------------------------------------------|
A|------------------------------------------------------------------------------|
F|--7--------------/12-----10-----7-------------7-7-7-7---7---------------------|
C|--7--------------/12-----10-----7-------------7-7-7-3---3---------------------|
G|--5--------------/10-----8------5-------------5-5-5-1---1---------------------|
C|------------------------------------------------------------------------------|

d|------------------------------------------------------------------------------|
A|------------------------------------------------------------------------------|
F|--7--------------/12-----10-------9--------9--------9----------8------7-------|
C|--7--------------/12-----10-------10-10-10-10-10-10-10-10-10---8------7-------|
G|--5--------------/10-----8-------------------------------------6------5-------|
C|----------------------------------------------------------------------0-------|

************************************

| /  Slide up
| x  Dead note
| r  Release
| b  Bend
| \  Slide down
| p  Pull-off
| h  Hammer-on 

************************************

            
            
Suggest correction
Creating personal tab
Creating personal tab
You can edit any tab online and save it as your Personal.

You can edit, replace or remove any tab part or add personal notes – all changes will be seen only by you.

Personal tabs can be accessed anytime from any device, even offline.
Learn more »
Give kudos to tab author, rate the tab!
1 2 3 4 5
comments
print report bad tab
guest
You may want to rate the tab now too:
select rating
Wanna post a correction for this tab? Suggest correction