Oops, an error
Loading. Please wait.

Chooser Of The Slain Valfader Tab

509 views 1 this week
no commentswrite comment
1 2 3 4 5
please rate
add to favorites
launch autoscroll
font size
0
reset
how to read this tab
guitar tuner
Tab Pro tools
  • play this tab
  • loop segment
  • change instrument
  • show fretboard
  • metronome
×
Best way to learn
"Chooser Of The Slain Valfader"
Autoscroll
slow
fast
+/-
esc
set tempo
stop
Contributor
Band: Grand Magus       
Song: Chooser of the slain (Valfader)
Album: Monument
Tuning: C standard

Key:
p = Pull off
pm ... = Palm mute
\ = slide
b = bend
~ = vibrato



 c|------------------------------------------------|
 G|------------------------------------------------|
Eb|------------------------------------------------|
Bb|----------p------------p----------p-------------| x4  
 F|--------12-10-12~----10-9-10~----9-7-9-5~~5~~---|
 C|--0--0-------------0-----------0----------------|


 pm  ...................           ................... 
 c|-----------------------------------------------------------------|
 G|-----------------------------------------------------------------|
Eb|-----------------------------------------------------------------|
Bb|----------------------9\7----9----------------------9\7----9-----| x5  
 F|--2--2--2--2--2--2--2-7\5----7--2--2--2--2--2--2--2-7\5----7-----|
 C|--0--0--0--0--0--0--0---5----7--0--0--0--0--0--0--0---5----------|


 c|------------------------------------------------|
 G|------------------------------------------------|
Eb|------------------------------------------------|
Bb|----------p------------p----------p-------------| x3
 F|--------12-10-12~----10-9-10~----9-7-9-5~~5~~---|
 C|--0--0-------------0-----------0----------------|


 c|---------------------------------------------------------------------------------------------|
 G|---------------------------------------------------------------------------------------------|
Eb|---------------------------------------------------------------------------------------------|
Bb|----------p------------p----------p-----------2-----------------------9--4--5----------------|
 F|--------12-10-12~----10-9-10~----9-7-9--4--5--0--------4--5--2--------7--2--3-----5--4--2----|
 C|--0--0-------------0-----------0--------2--3-----------2--3--0--------------------3--2--0----|


 c|-------------------------------------------------------|
 G|-------------------------------------------------------|
Eb|-------------------------------------------------------|
Bb|--------2-----------------------9--4--5---4------------|
 F|--4--5--0--------4--5--2--------7--2--3---2--5--4------|
 C|--2--3-----------2--3--0---------------------3--2------|


 pm  ...................           ................... 
 c|-----------------------------------------------------------------|
 G|-----------------------------------------------------------------|
Eb|-----------------------------------------------------------------|
Bb|----------------------9\7----9----------------------9\7----9-----| x4  
 F|--2--2--2--2--2--2--2-7\5----7--2--2--2--2--2--2--2-7\5----7-----|
 C|--0--0--0--0--0--0--0---5----7--0--0--0--0--0--0--0---5----------|


 pm  ...................
 c|--------------------------------------------------------------------------|
 G|--------------------------------------------------------------------------|
Eb|-------------------------------------------7~-5~---7~---------------------|
Bb|----------------------9\7----2----2----2---7~-5~---7~--2--2----2----------|  
 F|--2--2--2--2--2--2--2-7\5----0----0----0---------------0--0----0----------|
 C|--0--0--0--0--0--0--0---5-----------------------------------------3~--2~--|


 c|------------------------------------------------|
 G|------------------------------------------------|
Eb|------------------------------------------------|
Bb|----------p------------p----------p-------------| x3
 F|--------12-10-12~----10-9-10~----9-7-9-5~~5~~---|
 C|--0--0-------------0-----------0----------------|


 c|---------------------------------------------------------------------------------------------|
 G|---------------------------------------------------------------------------------------------|
Eb|---------------------------------------------------------------------------------------------|
Bb|----------p------------p----------p-----------2-----------------------9--4--5----------------|
 F|--------12-10-12~----10-9-10~----9-7-9--4--5--0--------4--5--2--------7--2--3-----5--4--2----|
 C|--0--0-------------0-----------0--------2--3-----------2--3--0--------------------3--2--0----|


 c|------------------------------------------------------------------------------|
 G|------------------------------------------------------------------------------|
Eb|------------------------------------------------------------------------------|
Bb|--------2-----------------------9--4--5---4-----------------9----9------------|
 F|--4--5--0--------4--5--2--------7--2--3---2--5--4---2--2----7----7---2--2-----|
 C|--2--3-----------2--3--0---------------------3--2---0--0-------------0--0-----|
  |                                                                              |
  |                                                                              |
 c|------------------------------------------------------------12--12------------|   
 G|----------------------------------------------------5--5----15b-15b--5--5-----|
Eb|----------------------------------------------------7b-7b------------7b-7b----|
Bb|------------------------------------------------------------------------------|  
 F|------------------------------------------------------------------------------|
 C|------------------------------------------------------------------------------|


 c|-----------------------------------------------------------------------------|
 G|-----------------------------------------------------------------------------|
Eb|-----------------------------------------------------------------------------|
Bb|---------2-----------------------9--4--5-------------------9----9------------|
 F|--4---5--0--------4--5--2--------7--2--3----5--4---2--2----7----7---2--2-----|
 C|--2---3-----------2--3--0-------------------3--2---0--0-------------0--0-----|
  |                                                                             |
  |                                                                             |
 c|--12--12---------------------------------------------------12--12------------|   
 G|--15b-15b------------------------------------------5--5----15b-15b--5--5-----|
Eb|---------------------------------------------------7b-7b------------7b-7b----|
Bb|-----------------------------------------------------------------------------| 
 F|-----------------------------------------------------------------------------|
 C|-----------------------------------------------------------------------------|


 c|-------------------------------------------------------------------------------------|
 G|-------------------------------------------------------------------------------------|
Eb|-------------------------------------------------------------------------------------|
Bb|---------2-----------------------9--4--5--4----9--4--5--4-----9--4--5----8-----------|
 F|--4---5--0--------4--5--2--------7--2--3--2----7--2--3--2-----7--2--3----6----2------|
 C|--2---3-----------2--3--0------------------------------------------------6----0------|
  |                                                                                     |
  |                                                                                     |
 c|--12--12-----------------------------------------------------------------------------|   
 G|--15b-15b----------------------------------------------------------------------------|
Eb|-------------------------------------------------------------------------------------|
Bb|-------------------------------------------------------------------------------------|
 F|-------------------------------------------------------------------------------------|
 C|-------------------------------------------------------------------------------------|
comments
We did not receive enough feedback on this tab! Please rate:
print report bad tab
1 2 3 4 5
I want to post or [tab]
guest
You may want to rate the tab now too:
select rating
Please do not post tabs as comments. Select "correction" instead!