Oops, an error
Loading. Please wait.

Hammer Of The North Tab

version 1
version 1

Whole song

Interactive

3,159 views 15 this week
1 commentread comment
1 2 3 4 5
please rate
add to favorites
launch autoscroll
font size
0
reset
how to read this tab
guitar tuner
Tab Pro tools
  • play this tab
  • loop segment
  • change instrument
  • show fretboard
  • metronome
×
Best way to learn
"Hammer Of The North"
Autoscroll
slow
fast
+/-
esc
set tempo
stop
Artist: Grand Magus
Song: Hammer Of The North
Album: Hammer Of The North
Tabbed by Ernsti

=============================================================================
               It is the first time I've written a tablature
          It is not perfect, but I hope I could help a little,bit
=============================================================================


Guitar Tuning: E A D G H E

=-Legend-=

/ -Slide Up
\ -Slide Down
* -Palm Mute
~ -Let Ring


Intro: 1X

e------------------------------|
H------------------------------|
G------------------------------|
D--2---2-2---2-2---5-5-5-5-7---|
A--2---2-2---2-2---5-5-5-5-7---|
E--0---0-0---0-0---3-3-3-3-5---|



Riff 1 : 4X

e-------------------------------------------------------------------|
H-------------------------------------------------------------------|
G-------------------------------------------------------------------|
D-------------------------------------------------------5-5-5-5/7-7-|
A-11---9---7---6----11---9---3---2----11---9---7---6----5-5-5-5/7-7-|
E----0---0---0---0-----0---0---0---0-----0---0---0------3-3-3-3/5-5-|



Riff 2 : 1X

e-----------------------------|
H-----------------------------|
G-----------------------------|
D---9--9\0---2---5-5-5-9--7---|
A---7--7\0---0---3-3-3-7--5---|
E------------------*-*--------|

e----------------------------------|
H----------------------------------|
G----------------------------------|
D---7/9-9-9-9\0--2---5-5-5--7-5----|
A---5/7-7-7-7\0--0---3-3-3--5-3----|
E-------*-*------------*-*---------|

e-----------------------------|
H-----------------------------|
G-----------------------------|
D---9--9\0---2---5-5-5-9--7---|
A---7--7\0---0---3-3-3-7--5---|
E------------------*-*--------|

e--------------------|
H--------------------|
G--------------------|
D---7/9-9-9-9\0--2---|
A---5/7-7-7-7\0--0---|
E-------*-*----------|


Riff 1 2X

Riff 2 1X



Riff 3:

e-----------------------------------------------------------------|
H-----------------------------------------------------------------|
G-----------------------------------------------------------------|
D-----------------------------------------------------------------|
A--7/9-9-9-9--9-----7/9-9-9-9--9-----7/9-9-9-9--9------5------4---|
E--5/7-7-7-7--7-----5/7-7-7-7--7-----5/7-7-7-7--7---0--3---0--2---|
       * *              * *              * *


e------------------------------------------------------------------|
H------------------------------------------------------------------|
G------------------------------------------------------------------|
D------------------------------------------------------------------|
A--7/9-9-9-9--9-----7/9-9-9-9--9-----7/9-9-9-9--9---9-12---12-13---|
E--5/7-7-7-7--7-----5/7-7-7-7--7-----5/7-7-7-7--7---7-10---10-11---|
       * *             * *            * *

Riff 4: 2X

e-----------------------------------------------------------|
H-----------------------------------------------------------|
G-----------------------------------------------------------|
D-----9--9---9--9---9---9--9----4--4---4--4---4---4--4------|
A-----7--7---7--7---7---7--7----5--5---5--5---5---5--5------|
E-----0--0- -0--0---0---0--0----0--0---0--0---0---0- 0------|
             *  *       *  *           *  *       *  *

e-------------------------------------------|
H-------------------------------------------|
G-------------------------------------------|
D--5--5---5--5---5---5--5---5--4------------|
A--4--4---4--4---4---4--4---3--2--0h2p0-----|
E--0--0---0--0---0---0--0-------------------|
          *  *       *  *
Solo ?


Riff 4: 2X


e--------------|
H--------------|
G--------------|
D--5-5-5-5-7---|   1X
A--5-5-5-5-7---|
E--3-3-3-3-5---|

e-----------------------------------------------------------------|
H-----------------------------------------------------------------|
G-----------------------------------------------------------------|   4X
D-------------------------------------------------------5-5-5-5/7-|
A-11---9---7---6----11---9---3---2----11---9---7---6----5-5-5-5/7-|
E----0---0---0---0-----0---0---0---0-----0---0---0------3-3-3-3/5-|



End of the 4th time

e---------------------------------------|
H---------------------------------------|
G---------------------------------------|
D-5-5-5-5-7--5-5-5-5-7---5-5-5-5-3---2~-|
A-5-5-5-5-7--5-5-5-5-7---5-5-5-5-3---2~-|
E-3-3-3-3-5--3-3-3-3-5---3-3-3-3-1---0~-|

  Schläy?!
comments
We did not receive enough feedback on this tab! Please rate:
print report bad tab
1 2 3 4 5
1 comment total.
0 reply
ma_tt11 wrote on October 17 2011, 12:39 pm

H. really? tune the string to H?

Theres the first problem.

I want to post or [tab]
guest
You may want to rate the tab now too:
select rating
Please do not post tabs as comments. Select "correction" instead!