Oops, an error
Loading. Please wait.

Iron Will Bass Tab

version 1
version 1

Whole song

Interactive

714 views 6 this week
no commentswrite comment
1 2 3 4 5
please rate
add to favorites
launch autoscroll
font size
0
reset
guitar tuner
Tab Pro tools
  • play this tab
  • loop segment
  • change instrument
  • show fretboard
  • metronome
×
Best way to learn
"Iron Will"
Autoscroll
slow
fast
+/-
esc
set tempo
stop
Contributor
Difficulty
Tuning
intermediate
C F A# D# G C
Grand Magus - Iron Will (Iron Will)
90 BPM - 4/4, triplet feel
4-string bass - C-standard tuning (CFA#D#)
Transcribed 100% by ear by Krakenbrau
Please send questions, comments, corrections to krakenbrau@gmail.com.

Legend:                 Timing:
\ - slide/bend down     W - whole note          W. - dotted whole note
/ - slide/bend up       H - half note           H. - dotted half note
b - bend                Q - quarter note        Q. - dotted quarter note
h - hammer-on           E - eighth note         E. - dotted eighth note
p - pull-off            S - sixteenth note      S. - dotted sixteenth note
~ - sustain             N - thirty-second note  N. - dotted thirty-second note
X - ghost note          ' - thirty-second note triplet (3/S)
                        t - sixteenth note triplet (3/E)
                        T - eighth note triplet (3/Q)
                        & - quarter note triplet (3/H)

'DS al Coda' - Return to the bar marked 'S' and play from there, until instructed to
               go to the Coda.

Notes:
This should be pretty accurate.  There are a few bass riffs that were pretty hard to
hear accurately, but I think I got em.
Probably played with a pick.


Intro
                                x3|
D#|-----------|-------------------|-----------------------|
A#|-----------|*-----------------*|-----------------------|
F |-----------|*-----------------*|-5~~~------7~~~7-7-----|
C |-------0-0-|--12~~\\\-----0-0--|------7~~~---------0-0-|
       (T)T T     H       (T)T T    Q    Q    T(T)T T T T

                    x3|
D#|-------------------|-----------------------|
A#|*-----------------*|-----------------------|
F |*-----------------*|-5~~~-6~~~-7~~~7-7-7-9-|
C |--12~~\\\-----0-0--|-----------------------|
      H       (T)T T    Q    Q    T(T)T T T T

Intro Chorus Riff
D#|------------------------------|-------------------------|
A#|*-----------------------------|-------------------------|
F |*-10-----------7-10-10-10-----|-------------7-5-5-5-----|
C |-----0-0-0-0-0------------8-7-|-0-0-0-0-0-0---------8-7-|
     T  T T T T T T  T  T  T T T   T T T T T T T T T T T T

                               |                       1|2
D#|----------------------------|------------------------|-------------------|
A#|----------------------------|-----------------------*|-------------------|
F |-------------7-10-10-10-7-5-|-5~~~\2~~~/7~~~----7-9-*|-5~~~-6~~~-7~~~~\\-|
C |-0-0-0-0-0-0----------------|------------------------|-------------------|
    T T T T T T T  T  T  T T T   Q    Q    Q    (T)T T    Q    Q    H

Post-Chorus 1/2
  |S                         |                         1|2
D#|--------------------------|--------------------------|-------------------|
A#|*-------------------------|-------------------------*|-------------------|
F |*-7-----7-----7-----------|-7-----7-----7-----------*|-5~~~~~~-7~~~-9~~~-|
C |----0-0---0-0---0-0-3-2-0-|---0-0---0-0---0-0-0-2-3--|-------------------|
     T T T T T T T T T T T T   T T T T T T T T T T T T    H       Q    Q

Verse 1/2
                                                                         |                      1|
D#|-----------------------|----------------------|-----------------------|-----------------------|
A#|*----------------5~~~5-|----------------5~~~5-|-----------------------|----------------------*|
F |*-7~~~77~~~77~~~7------|-7~~~77~~~77~~~7------|-5~~~55~~~55~~~55~~~55-|-3~~~33~~~32~~~22~~~2-*|
C |-----------------------|----------------------|-----------------------|-----------------------|
     T(T)TT(T)TT(T)TT(T)T   T(T)TT(T)TT(T)TT(T)T   T(T)TT(T)TT(T)TT(T)TT   T(T)TT(T)TT(T)TT(T)T

D#|----------------------|----------------------|------------------------|
A#|----------------------|----------------------|------------------------|
F |-7~~~77~~~79~~~99~~~9-|----------------------|------------------------|
C |----------------------|-5~~~55~~~55~~~57~~~7-|-8~~~88~~~88~~~810~~~10-|
    T(T)TT(T)TT(T)TT(T)T   T(T)TT(T)TT(T)TT(T)T   T(T)TT(T)TT(T)T T(T) T

D#|-----------------------------|----------------------------------|
A#|-----------------------------|----------------------------------|
F |-----------------------------|----------------------------------|
C |-12\000-0-000-0-000-15-15-14-|-12\000-0-000-12-121212-12-121212-|
     T ttT T ttT T ttT  T  T  T    T ttT T ttT  T  t t T  T  t t T

Pre-Chorus 1/2
D#|----------------------|------------------------|
A#|----------------------|------------------------|
F |----------------------|------------------------|
C |-5~~~55~~~55~~~57~~~7-|-8~~~88~~~88~~~810~~~10-|
    T(T)TT(T)TT(T)TT(T)T   T(T)TT(T)TT(T)T T(T) T

D#|------------------------------|-------------------------------|
A#|------------------------------|-------------------------------|
F |------------------------------|-10-10-10-10-10-10-9-9-9-9-7-9-|
C |-7-7-7-7~~~7-11-11-11-11~~~11-|-------------------------------|
    T T T T(T)T  T  T  T  T(T) T    T  T  T  T  T  T T T T T T T

Chorus 1/2
D#|------------------------------|-------------------------|-------------------------|
A#|*-----------------------------|-------------------------|-------------------------|
F |*-10-----------7-10-10-10-----|-------------7-5-5-5-----|-------------7-10-10-10\-|
C |-----0-0-0-0-0------------8-7-|-0-0-0-0-0-0---------8-7-|-0-0-0-0-0-0-------------|
     T  T T T T T T  T  T  T T T   T T T T T T T T T T T T   T T T T T T T  T  T  Q

                         |                         1|2                        |To Coda
D#|----------------------|--------------------------|-------------------------|
A#|----------------------|-------------------------*|-------------------------|
F |----------------------|---------------------7-9-*|-------------6-6-6-6-6-6-|
C |-8~~~88~~~83~~~33~~~3-|-2~~~2-2~~~2-0-0-0-0------|-2~~~2-2~~~2-------------|
    T(T)TT(T)TT(T)TT(T)T   T(T)T T(T)T T T T T T T    T(T)T T(T)T T T T T T T

Post-Chorus
                             |                         1|2                  |DS al Coda
D#|--------------------------|--------------------------|-------------------|
A#|*-------------------------|-------------------------*|-------------------|
F |*-7-----7-----7-----------|-7-----7-----7-----------*|-5~~~~~~-3~~~-2~~~-|
C |----0-0---0-0---0-0-3-2-0-|---0-0---0-0---0-0-0-2-3--|-------------------|
     T T T T T T T T T T T T   T T T T T T T T T T T T    H       Q    Q


Coda (Solo)                  |                         1|2                  
D#|--------------------------|--------------------------|-------------------|
A#|*-------------------------|-------------------------*|-------------------|
F |*-7-----7-----7-----------|-7-----7-----7-----------*|-5~~~~~~-3~~~-2~~~-|
C |----0-0---0-0---0-0-3-2-0-|---0-0---0-0---0-0-0-2-3--|-------------------|
     T T T T T T T T T T T T   T T T T T T T T T T T T    H       Q    Q

                             |                         1|2
D#|--------------------------|--------------------------|-------------------|
A#|*-------------------------|-------------------------*|-------------------|
F |*-7-----7-----7-----------|-7-----7-----7-----------*|-5~~~~~~-7~~~-9~~~-|
C |----0-0---0-0---0-0-3-2-0-|---0-0---0-0---0-0-0-2-3--|-------------------|
     T T T T T T T T T T T T   T T T T T T T T T T T T    H       Q    Q

                            x2|                         x2|                         x2|
D#|---------------------------|---------------------------|---------------------------|
A#|*-------------------------*|*-------------------------*|*-------------------------*|
F |*-7-----7-----7-----7-----*|*-3-3-3-3-3-3-3-3-3-3-3-3-*|*-------------------------*|
C |----0-0---0-0---0-0---0-0--|---------------------------|--5-5-5-5-5-5-5-5-5-5-5-5--|
     T T T T T T T T T T T T     T T T T T T T T T T T T     T T T T T T T T T T T T

D#|-------------------------|-------------------------|
A#|-------------------------|-------------------------|
F |-------------------------|---6-6---6-6---6-6---7-9-|
C |-7-7-7-7-7-7-7-7-7-7-7-7-|-7-----7-----7-----7-----|
    T T T T T T T T T T T T   T T T T T T T T T T T T

Outro
                             |                         1|2                  
D#|--------------------------|--------------------------|-------------------|
A#|*-------------------------|-------------------------*|-------------------|
F |*-7-----7-----7-----------|-7-----7-----7-----------*|-5~~~~~~-3~~~-2~~~-|
C |----0-0---0-0---0-0-3-2-0-|---0-0---0-0---0-0-0-2-3--|-------------------|
     T T T T T T T T T T T T   T T T T T T T T T T T T    H       Q    Q

                             |                         1|2
D#|--------------------------|--------------------------|-------------------|
A#|*-------------------------|-------------------------*|-------------------|
F |*-7-----7-----7-----------|-7-----7-----7-----------*|-5~~~~~~-7~~~-9~~~-|
C |----0-0---0-0---0-0-3-2-0-|---0-0---0-0---0-0-0-2-3--|-------------------|
     T T T T T T T T T T T T   T T T T T T T T T T T T    H       Q    Q

                             |                         1|2                  
D#|--------------------------|--------------------------|-------------------|
A#|*-------------------------|-------------------------*|-------------------|
F |*-7-----7-----7-----------|-7-----7-----7-----------*|-5~~~~~~-3~~~-2~~~-|
C |----0-0---0-0---0-0-3-2-0-|---0-0---0-0---0-0-0-2-3--|-------------------|
     T T T T T T T T T T T T   T T T T T T T T T T T T    H       Q    Q

                             |                         1|2                  
D#|--------------------------|--------------------------|-------------------|
A#|*-------------------------|-------------------------*|-------------------|
F |*-7-----7-----7-----------|-7-----7-----7-----------*|-5-5-5-6-6-6-7\\\\-|
C |----0-0---0-0---0-0-3-2-0-|---0-0---0-0---0-0-0-2-3--|-------------------|
     T T T T T T T T T T T T   T T T T T T T T T T T T    T T T T T T H
comments
We did not receive enough feedback on this tab! Please rate:
print report bad tab
1 2 3 4 5
I want to post or [tab]
guest
You may want to rate the tab now too:
select rating
Please do not post tabs as comments. Select "correction" instead!