Oops, an error
Loading. Please wait.

Chartsengrafs Bass Tab

16 views 1 this week
no commentswrite comment
1 2 3 4 5
3 more votes to show rating
add to favorites
launch autoscroll
font size
0
reset
guitar tuner
Autoscroll
slow
fast
+/-
esc
set tempo
stop
Help us to improve Ultimate-Guitar.com Take our survey!
×
Author
Difficulty
novice
Bass Start - 00:34


[Verse 1]

G|-----------------|-------------------------| (x2)
D|-----------------|-------------------------|
A|-----------------|-3-3-3-3-----------------|
E|-0-0-0-0-0-0-0-0-|---------0-0-0-0-0-0-0-0-|


G|-----------------|------------------------------| (x2)
D|-----------------|------------------------------|
A|-----------------|------------------------------|
E|-5-5-5-5-5-5-5-5-|-/10-10-10-10-8-8-8-8-8-8-8-8-|


[Verse 2]

G|-----------------|-------------------------| (x2)
D|-----------------|-------------------------|
A|-----------------|-3-3-3-3-----------------|
E|-0-0-0-0-0-0-0-0-|---------0-0-0-0-0-0-0-0-|


G|-----------------|------------------------------|----------------|
D|-----------------|------------------------------|----------------|
A|-----------------|------------------------------|----------------|
E|-5-5-5-5-5-5-5-5-|-/10-10-10-10-8-8-8-8-8-8-8-8-|-5-5-5-5-5-5-5--|


G|----------------|----------------|
D|----------------|----------------|
A|-----(rest)-----|-----(rest)-----|
E|----------------|----------------|


[Chorus]

G|-----------------|-----------------|-----------------|-----------------------| (x4)
D|-----------------|-----------------|-----------------|-----------------------|
A|-----------------|-5-5-5-5-5-5-5-5-|-3-3-3-3-3-3-3-3-|-----------------------|
E|-5-5-5-5-5-5-5-5-|-----------------|-----------------|-0-0-2-0-2--0-2--0-2-0-|


[Outro] (repeat until the end)

G|-----------------|-----------------|-----------------|-------------------------|
D|-----------------|-----------------|-----------------|-------------------------|
A|-----------------|-5-5-5-5-5-5-5-5-|-3-3-3-3-3-3-3-3-|-------------------------|
E|-5-5-5-5-5-5-5-5-|-----------------|-----------------|-0-0-0-0-0-0-0-0-0-0-0-0-|



****************************

| / : slide up

****************************

in regular sequence!
Suggest correction
Give kudos to tab author, rate the tab!
1 2 3 4 5
comments
print report bad tab
guest
You may want to rate the tab now too:
select rating
Wanna post a correction for this tab? Suggest correction