Oops, an error
Loading. Please wait.

Everything Beautiful Is Far Away Tab

2,944 views 3 this week
2 commentsread comments
1 2 3 4 5
1 last vote to show rating
add to favorites
launch autoscroll
font size
0
reset
how to read this tab
guitar tuner
×
Best way to learn
"Everything Beautiful Is Far Away"
Autoscroll
slow
fast
+/-
esc
set tempo
stop
-------------------------------------------------------------------------------
                  Everything Beautiful is Far Away - Grandaddy
-------------------------------------------------------------------------------
Tabbed by: James Davidson
Email: jamesrodavidson@hotmail.com

Tuning:normal

Don't play the strings that have no frets in use.

e|---------------------------------------------------------------------------|
B|---------------------------------------------------------------------------|
G|-11--11--11--11--11--11--11--11--11--11--11--11--11--11--11--11------------|
D|-11--11--11--11--11--11--11--11--09--09--09--09--09--09--09--09------------|
A|-10--10--10--10--10--10--10--10--10--10--10--10--10--10--10--10------------|
E|---------------------------------------------------------------------------|



e|---------------------------------------------------------------------------|
B|---------------------------------------------------------------------------|
G|-09--09--09--09--09--09--09--09--07--07--07--07--07--07--07--07------------|
D|-07--07--07--07--07--07--07--07--07--07--07--07--07--07--07--07------------|
A|-09--09--09--09--09--09--09--09--09--09--09--09--09--09--07--07------------|
E|---------------------------------------------------------------------------|


And after you've done that 2 times you go:


e|---------------------------------------------------------------------------|
B|---------------------------------------------------------------------------|
G|-11--11--11--11--11--11--11--11--11--11--11--11--11--11--11--11------------|
D|-11--11--11--11--11--11--11--11--09--09--09--09--09--09--09--09------------|
A|-10--10--10--10--10--10--10--10--10--10--10--10--10--10--10--10------------|
E|---------------------------------------------------------------------------|




e|---------------------------------------------------------------------------|
B|---------------------------------------------------------------------------|
G|-09--09--09--09--09--09--09--09--07--07--07--07--07--07--07--07------------|
D|-07--07--07--07--07--07--07--07--06--06--06--06--06--06--06--06------------|
A|-09--09--09--09--09--09--09--09--08--08--08--08--08--08--08--08------------|
E|---------------------------------------------------------------------------|



e|---------------------------------------------------------------------------|
B|---------------------------------------------------------------------------|
G|-07--07--07--07--07--07--07--07--06--06--06--06--06--06--06--06------------|
D|-05--05--05--05--05--05--05--05--05--05--05--05--05--05--05--05------------|
A|-07--07--07--07--07--07--07--07--07--07--07--07--07--07--07--07------------|
E|---------------------------------------------------------------------------|



e|---------------------------------------------------------------------------|
B|-05--05--05--05--05--05--05--05--06--06--06--06--06--06--06--06------------|
G|-04--04--04--04--04--04--04--04--05--05--05--05--05--05--05--05------------|
D|-05--05--05--05--05--05--05--05--07--07--07--07--07--07--07--07------------|
A|---------------------------------------------------------------------------|
E|---------------------------------------------------------------------------|



e|---------------------------------------------------------------------------|
B|---------------------------------------------------------------------------|
G|-07--07--07--07--07--07--07--07--07--07--07--07--07--07--07--07------------|
D|-07--07--07--07--07--07--07--07--07--07--07--07--07--07--07--07------------|
A|-09--09--09--09--09--09--09--09--09--09--09--09--09--09--09--09------------|
E|---------------------------------------------------------------------------|



The chorusy bit goes: G D G D
                      G E G D


Please email if you have any comments or corrections.



| /  slide up
| \  slide down
| h  hammer-on
| p  pull-off
| ~  vibrato
| +  harmonic
| x  Mute note
===============================================================================
Suggest correction
Give kudos to tab author, rate the tab!
1 2 3 4 5
comments
print report bad tab
2 comments total.
0 reply
Jebman 10 Sep 07, 2008 12:21 PM

Awesome song, awesome tab. It just makes sense. The only thing I would change is the second from last line, I like the sound of x554xx-x756xx better.

0 reply
iluvvsmp2 196 Feb 19, 2013 03:41 PM

Very good tab, it helped me tune my ear into what was being played in the chords. But I found some mistakes and I'm pretty sure it's played this way:

(The first phrase is correct with the exception of the last two notes on the A string, I think they should just keep playing the 9th fret)

e|----------------------------------------------------------------------|
B|----------------------------------------------------------------------|
G|-11--11--11--11--11--11--11--11--11--11--11--11--11--11--11--11-------|
D|-11--11--11--11--11--11--11--11--09--09--09--09--09--09--09--09-------|
A|-10--10--10--10--10--10--10--10--10--10--10--10--10--10--10--10-------|
E|----------------------------------------------------------------------|

e|----------------------------------------------------------------------|
B|----------------------------------------------------------------------|
G|-09--09--09--09--09--09--09--09--07--07--07--07--07--07--07--07-------|
D|-07--07--07--07--07--07--07--07--07--07--07--07--07--07--07--07-------|
A|-09--09--09--09--09--09--09--09--09--09--09--09--09--09--09--09-------|
E|----------------------------------------------------------------------|

And then a few changes to the rest of it all (the first 3 bars are unchanged)

e|----------------------------------------------------------------------|
B|----------------------------------------------------------------------|
G|-11--11--11--11--11--11--11--11--11--11--11--11--11--11--11--11-------|
D|-11--11--11--11--11--11--11--11--09--09--09--09--09--09--09--09-------|
A|-10--10--10--10--10--10--10--10--10--10--10--10--10--10--10--10-------|
E|----------------------------------------------------------------------|

e|----------------------------------------------------------------------|
B|----------------------------------------------------------------------|
G|-09--09--09--09--09--09--09--09--07--07--07--07--07--07--07--07-------|
D|-07--07--07--07--07--07--07--07--06--06--06--06--06--06--06--06-------|
A|-09--09--09--09--09--09--09--09--08--08--08--08--08--08--08--08-------|
E|----------------------------------------------------------------------|

e|----------------------------------------------------------------------|
B|----------------------------------------------------------------------|
G|-07--07--07--07--07--07--07--07--06--06--06--06--06--06--06--06-------|
D|-05--05--05--05--05--05--05--05--05--05--05--05--05--05--05--05-------|
A|-07--07--07--07--07--07--07--07--07--07--07--07--07--07--07--07-------|
E|----------------------------------------------------------------------|

e|----------------------------------------------------------------------|
B|-04--04--04--04--04--04--04--04--06--06--06--06--06--06--06--06-------|
G|-05--05--05--05--05--05--05--05--05--05--05--05--05--05--05--05-------|
D|-05--05--05--05--05--05--05--05--04--04--04--04--00--00--00--00-------|
A|----------------------------------------------------------------------|
E|----------------------------------------------------------------------|

e|----------------------------------------------------------------------|
B|----------------------------------------------------------------------|
G|-07--07--07--07--07--07--07--07--07--07--07--07--07--07--07--07-------|
D|-07--07--07--07--07--07--07--07--07--07--07--07--07--07--07--07-------|
A|-05--05--05--05--05--05--05--05--05--05--05--05--05--05--05--05-------|
E|----------------------------------------------------------------------|

guest
You may want to rate the tab now too:
select rating
Wanna post a correction for this tab? Suggest correction