Oops, an error
Loading. Please wait.

Stray Dog And The Chocolate Shake tab

3,698 views 1 this week
1 commentread comment
1 2 3 4 5
x 5
add to favorites
×
Save as Personal and add changes to this tab that will be seen only by you. Learn more ›
×
You can save this tab as Personal to edit and correct it or add notes. All changes will be seen only by you. Learn more »
launch autoscroll
font size
0
reset
how to read this tab
guitar tuner
edit
Autoscroll
slow
fast
+/-
esc
set tempo
stop
Author
Band: Grandaddy
Song: Stray Dog And The Chocolate Shake
Tabbed by: IgorAFI (igorbrazil@hotmail.com)

I think its a really cool song I think Grandaddy is a great band.
I saw them with Saves the Day.. well I got the electronic part from the song and here it is
Regular Tunning

Intro/Verse - too many times
e-15-14-12-----------------------------------12-12-14-15-
B----------15-14-14-12--------------12-14-15-------------
G----------------------14-12--12-14----------------------
D--------------------------------------------------------
A--------------------------------------------------------
E--------------------------------------------------------

after he says 'Its Magic' its like:
e-------------------
B-------------------
G-------------------
D-5-4-2-------------
A-------5-3-3-2-----
E---------------5-3-

Repeats everything
And the end thing is 

e--------          e---3---3-3/15-
B--------          B--------------
G-------- x3 then  G--------------
D--5-5---          D--------------
A--------          A--5--5--5-----
E-3-3-3--          E-3--3--3------

            
            
Suggest correction
Creating personal tab
Creating personal tab
You can edit any tab online and save it as your Personal.

You can edit, replace or remove any tab part or add personal notes – all changes will be seen only by you.

Personal tabs can be accessed anytime from any device, even offline.
Learn more »
comments
print report bad tab
1 comment total.
+1 reply
IgorAFI 70 Apr 12, 2004 08:00 PM

People Im sooo sorry the real verse thing is
e-15-14-12-----------------------------------12-12-14-15-
B----------15-13-13-12--------------12-13-15-------------
G----------------------14-12--12-14----------------------
D--------------------------------------------------------
A--------------------------------------------------------
E--------------------------------------------------------
love you all IgorAFI.

guest
You may want to rate the tab now too:
select rating
Wanna post a correction for this tab? Suggest correction