Oops, an error
Loading. Please wait.
We have Chord Pro version of Way We Wont.
It's the closest thing you can get to the original song and it has interactive parts. Check out the tab »
×
442 views 6 this week
no commentswrite comment
1 2 3 4 5
1 last vote to show rating
add to favorites
launch autoscroll
font size
0
reset
how to read this tab
guitar tuner
Autoscroll
slow
fast
+/-
esc
set tempo
stop
Author
Difficulty
newg [tm] 48,667
novice
----------------------------------------------------------------------------------------------------
                                     Grandaddy - Way We Won't
----------------------------------------------------------------------------------------------------

Album : Way We Won't (2016)
Tempo : 115
E-mail: gwendal.mollo@orange.fr
Tabbed by: newg    (http://profile.ultimate-guitar.com/newg/)

See my guitar pro/powertab for more

[Intro]

e|---------------------------|----------------------------|
B|-------------9---12---14---|----------14---12---9-------|
G|---9------9----------------|--9---------------------11--|
D|------11-------------------|-----11---------------------|
A|---------------------------|----------------------------|
E|---------------------------|----------------------------|

e|---------------------------|----------------------------|
B|---------------------------|----------------------------|
G|-----11---------------11---|-----11---------------11--9-|
D|---------------------------|----------------------------|
A|---------------------------|----------------------------|
E|---------------------------|----------------------------| x2



[Verse]

   C#m               B                 E                 E
e|-4-4-4-4-4-4-4-4-|-----------------|-0-0-0-0-0-0-0-0-|----------------|
B|-5-5-5-5-5-5-5-5-|-4-4-4-4-4-4-4-4-|-0-0-0-0-0-0-0-0-|----------------|
G|-6-6-6-6-6-6-6-6-|-4-4-4-4-4-4-4-4-|-1-1-1-1-1-1-1-1-|----------------|
D|-6-6-6-6-6-6-6-6-|-4-4-4-4-4-4-4-4-|-2-2-2-2-2-2-2-2-|------ % -------|
A|-4-4-4-4-4-4-4-4-|-2-2-2-2-2-2-2-2-|-2-2-2-2-2-2-2-2-|----------------|
E|-----------------|-----------------|-0-0-0-0-0-0-0-0-|----------------|

[Chorus]
     A          A              E             E
e|---------------------------|----------------------------|
B|-----------------12--14----|--------12s14--12---9-------|
G|---9------9--14------------|--9---------------------11--|
D|------11-------------------|-----11---------------------|
A|---------------------------|----------------------------|
E|---------------------------|----------------------------|

     A          A              E             E
e|---------------------------|----------------------------|
B|-----------------12--14----|----------------------------|
G|---9------9--14------------|--9---------9---13s14--13---|
D|------11-------------------|-----11--9------------------|
A|---------------------------|----------------------------|
E|---------------------------|----------------------------|

Repeat 4 times


[Solo]
e|---------------------|-----------------------|-------------------|----------|
B|---------------------|-----------------------|-------------------|----------|
G|--13-----------------|-----13--13/16--13--11-|-11----13-13L------|----------|
A|---------------------|-----------------------|-------------------|----------|
A|---------------------|-----------------------|-------------------|----------|
E|---------------------|-----------------------|-------------------|----------|



[Outro]
e|---------------------|-----------------------|-------------------|----------|
B|---------------------|-----------------------|-------------------|----------|
G|--13-----------------|-----13--13/16--13--11-|-11----13-13L------|----------|
A|---------------------|-----------------------|-------------------|----------|
A|---------------------|-----------------------|-------------------|----------|
E|---------------------|-----------------------|-------------------|----------|

 Repeat till the end

L : let ring
/ : Slide
Suggest correction
Give kudos to tab author, rate the tab!
1 2 3 4 5
comments
print report bad tab
guest
You may want to rate the tab now too:
select rating
Wanna post a correction for this tab? Suggest correction