Oops, an error
Loading. Please wait.

Way We Wont Tab

88 views 15 this week
no commentswrite comment
1 2 3 4 5
3 more votes to show rating
add to favorites
launch autoscroll
font size
0
reset
how to read this tab
guitar tuner
Autoscroll
slow
fast
+/-
esc
set tempo
stop
Help us to improve Ultimate-Guitar.com Take our survey!
×
Author
Difficulty
newg [tm] 45,817
novice


----------------------------------------------------------------------------------------------------
                                     Grandaddy - Way We Won't
----------------------------------------------------------------------------------------------------

Album : Way We Won't - Single (2016)
Tempo : 115
E-mail: gwendal.mollo@orange.fr
Tabbed by: newg    (http://profile.ultimate-guitar.com/newg/)


[Intro]

e|---------------------------|----------------------------|
B|-------------9---12---14---|----------14---12---9-------|
G|---9------9----------------|--9---------------------11--|
D|------11-------------------|-----10---------------------|
A|---------------------------|----------------------------|
E|---------------------------|----------------------------|

[Verse]

   C#m               B                 E                 E
e|-4-4-4-4-4-4-4-4-|-----------------|-0-0-0-0-0-0-0-0-|----------------|
B|-5-5-5-5-5-5-5-5-|-4-4-4-4-4-4-4-4-|-0-0-0-0-0-0-0-0-|----------------|
G|-6-6-6-6-6-6-6-6-|-4-4-4-4-4-4-4-4-|-1-1-1-1-1-1-1-1-|----------------|
D|-6-6-6-6-6-6-6-6-|-4-4-4-4-4-4-4-4-|-2-2-2-2-2-2-2-2-|------ % -------|
A|-4-4-4-4-4-4-4-4-|-2-2-2-2-2-2-2-2-|-2-2-2-2-2-2-2-2-|----------------|
E|-----------------|-----------------|-0-0-0-0-0-0-0-0-|----------------|

[Chorus]
     A          A              E             E
e|---------------------------|----------------------------|
B|-----------------12--14----|--------12s14--12---9-------|
G|---9------9--14------------|--9---------------------11--|
D|------11-------------------|-----10---------------------|
A|---------------------------|----------------------------|
E|---------------------------|----------------------------|

     A          A              E             E
e|---------------------------|----------------------------|
B|-----------------12--14----|----------------------------|
G|---9------9--14------------|--9---------9---13s14--13---|
D|------11-------------------|-----10--9------------------|
A|---------------------------|----------------------------|
E|---------------------------|----------------------------|

Repeat 4 times


[Outro]
e|---------------------|
B|---------------------|
G|--13-----------------|
D|---------------------|
A|---------------------|
E|---------------------|

e|---------------------|-----------|-----------|
B|---------------------|-----------|-----------|
G|--13s--16---13---12--|-12--------|-13--------|
D|---------------------|-----------|-----------|
A|---------------------|-----------|-----------|
E|---------------------|-----------|-----------| Repeat till the end

Suggest correction
Give kudos to tab author, rate the tab!
1 2 3 4 5
comments
print report bad tab
guest
You may want to rate the tab now too:
select rating
Wanna post a correction for this tab? Suggest correction