Oops, an error
Loading. Please wait.

White Lines bass

version 2
version 2

Whole song

3,928 views 12 this week
no commentswrite comment
1 2 3 4 5
x 9
add to favorites
×
Save as Personal and add changes to this tab that will be seen only by you. Learn more ›
×
You can save this tab as Personal to edit and correct it or add notes. All changes will be seen only by you. Learn more »
launch autoscroll
font size
0
reset
guitar tuner
edit
Autoscroll
slow
fast
+/-
esc
set tempo
stop
Author
Difficulty
-------------------------------------------------------------------------------
                             White Lines - Grandmaster Flash
-------------------------------------------------------------------------------

Tuning: Standard

The vocal chorus at the intro.

G|-------------14------------------------------------------------|
D|-----9---12----------------------------------------------------|
A|-10------------------------------------------------------------|
E|---------------------------------------------------------------|

Main Riff
G|-----------------------|-------------------------------------------|
D|-----------------------|-------------------------------------------|
A|-0-3--0-3--0-3--0-3--0-|-0-3--0-3--0-3--0-3--030-303--030-303------|
E|-----------------------|-------------------------------------------|

The Trumpet line: now this is HARD to nail: the last bit is played
very quickly, and you dont neseccarily have to pluck the notes:
 you can just hammer on from nowhere. its actually easier to use
your thumb for the lower notes.

G--------------------------------------------------------------------|
D-----5--3---3----3h5--3---3-------5--3---3---3-5p3------------------|
A----------5---5---------5---5----------5---5--------5-3/1-----------|
E-3------------------------------3--------------------------3-1-3----|

G--------------------------------------------------------------------|
D-----5--3---3----3-5-3--3-5-------5--3---3---3-5p3------------------|
A----------5---5--------5---------------5---5--------5-4-3-----------|
E-3------------------------------3-------------------------6-5-------|

            
            
Suggest correction
Creating personal tab
Creating personal tab
You can edit any tab online and save it as your Personal.

You can edit, replace or remove any tab part or add personal notes – all changes will be seen only by you.

Personal tabs can be accessed anytime from any device, even offline.
Learn more »
comments
print report bad tab
guest
You may want to rate the tab now too:
select rating
Wanna post a correction for this tab? Suggest correction