Oops, an error
Loading. Please wait.

Mark My Words Tab

195 views 3 this week
no commentswrite comment
1 2 3 4 5
please rate
add to favorites
launch autoscroll
font size
0
reset
how to read this tab
guitar tuner
Tab Pro tools
  • play this tab
  • loop segment
  • change instrument
  • show fretboard
  • metronome
×
Best way to learn
"Mark My Words"
Autoscroll
slow
fast
+/-
esc
set tempo
stop
Contributor
-------------------------------------------------------------------------------
			      Mark My Words - Granian
-------------------------------------------------------------------------------
Tabbed by: ferretbpdog

Email:ferretbpdog@yahoo.com



Album: On My Own Two Feet
Words and Music by Garen Gueyikian


http://www.granian.com


Legend:
| /  slide up
| \  slide down
| h  hammer-on
| p  pull-off
| ~  vibrato
| +  harmonic
| x  Mute note
| t  tremolo pick 


Intro:

   A		    F  A		 F
   t---------------------------------------t
e|-----------------------------------------------------|
B|-----------------------------------------------------|
G|-----------------------------------------------------|
D|-----------------------------------------------------|
A|-0-3-7-3-0-3-7-10-8--0-3-7-3-0-3-7-10-12-------------|
E|-----------------------------------------------------|


                          A
I wonder where you've been
               F5
While the walls were closing in

               A  
If I could go on
             F                E
Pretending this was always wrong
              F  	      G
Now I wonder who you'll turn to


  G                               
  When it starts to bring you down
e|--3--------------------------------------1---------|
B|--3--------------------------------------1---------|
G|--4-----------------------------5-----5--2---------|
D|--5---------------------------5-----5----3---------|
A|--5-------------------------3-----2------3---------|
E|--3=-------------------------------------1---------|

    Mark my words I will never bleed for you
e|------------------------------1--------------------|
B|--1------------4--------------1--------------------|
G|--0------------4--------------2--------------------|
D|--2------------4--------------3--------------------|
A|--3------------2--------------3--------------------|
E|------------------------------1--------------------|

			     	 
Not if you don't want what you don't need from me anyway
e|------------------------------1--------------------|
B|--1------------4--------------1--------------------|
G|--0------------4--------------2--------------------|
D|--2------------4--------------3--------------------|
A|--3------------2--------------3--------------------|
E|------------------------------1--------------------|
			     
   t-----------t
e|---------------------------------------------------|
B|---------------------------------------------------|
G|---------------7--5\-------------------------------|
D|---------------7--5\-------------------------------|
A|---0-3-7----0--5--3\-------------------------------|
E|-1--------1----------------------------------------|


A
I'll miss your attitude
I'll miss the way you quickly change your moods

That look in your eyes
			     F		   E
And the way you flash your fake plastic smile

	  F		      G
Now I wonder where your gonna run to

When it leaves you down and [out?]
e|--3--------------------------------------1---------|
B|--3--------------------------------------1---------|
G|--4-----------------------------5-----5--2---------|
D|--5---------------------------5-----5----3---------|
A|--5-------------------------3-----2------3---------|
E|--3--------------------------------------1---------|


Mark my words I will never bleed for you
                                t--------------t 
e|---------------------------1------------------------|
B|--1------------4-----------1------------------------|
G|--0------------4-----------2------------------------|
D|--2------------4-----------3------------------------|
A|--3------------2-----------3----0-3-7----0--3--7\---|
E|---------------------------1--1--------1------------|


I know you don't want what you don't need from me anyway [now that you?]
e|------------------------------1--------------------|
B|--1------------4--------------1--------------------|
G|--0------------4--------------2--------------------|
D|--2------------4--------------3--------------------|
A|--3------------2--------------3--------------------|
E|------------------------------1--------------------|

         C         B         Bb        F
I spent too much time on my knees for you

E                                              F
Now my hands are washed from drowning in your sea

G                       A
Consider yourself set free

Acoustic solo
A F A F E

F                        G
Now I wonder who you’ll run to


C                    B       F      
When it starts to bring you down


C
Mark my words I will never bleed for you


Not if you don't want what you don't need from me anyway
e|---------------------------------------------------|
B|---------------------------------------------------|
G|------------5---------------------------------5-5--|
D|--------------5----X-14-----------------------5-5--|
A|------------3---------------------------------3-3--|
E|---------------------------------------------------|

         C        B          Bb               F
I spent too much time on my knees if only for you


         C               B                     F
Now my hands are washed from drowning in your sea

               E                                           F
I tell you mark my words this is the last you’ll hear from me
 G                       A 
Consider yourself set free

   t-----------t
e|-----------------------------------------------------|
B|-----------------------------------------------------|
G|-----------------------------------------------------|
D|-----------------------------------------------------|
A|-0-3-7-3-0-3-7-10-12---------------------------------|
E|-----------------------------------------------------|
comments
We did not receive enough feedback on this tab! Please rate:
print report bad tab
1 2 3 4 5
I want to post or [tab]
guest
You may want to rate the tab now too:
select rating
Please do not post tabs as comments. Select "correction" instead!