Oops, an error
Loading. Please wait.

Whole Again Tab

568 views 1 this week
no commentswrite comment
1 2 3 4 5
please rate
add to favorites
launch autoscroll
font size
0
reset
how to read this tab
guitar tuner
Autoscroll
slow
fast
+/-
esc
set tempo
stop
Help us to improve Ultimate-Guitar.com Take our survey!
×
Author
-------------------------------------------------------------------------------
                             Whole Again - John Mayer
-------------------------------------------------------------------------------

By:LeadMaster79

Tuning: 1/2 step down (Eb, Ab, Db, Gb, Bb, Eb)


INTRO



      Don't wanna be so angry        Don't wanna keep so quiet

      (ring out)------------->       (ring out)----------------->
eb|---0------------------------------0----------------------------------------|
Bb|---0------------------------------0----------------------------------------|
Gb|---x------------------------------x----------------------------------------|
Db|---2------------------------------2----------------------------------------|
Ab|---2------------------------------2----------------------------------------|
Eb|---0------------------------------0----------------------------------------|


      Now it's open fire             And i can't move
      
      (ring out)------------->       (ring out)----------------->
eb|---0------------------------------0----------------------------------------|
Bb|---0------------------------------0----------------------------------------|
Gb|---x------------------------------x----------------------------------------|
Db|---2------------------------------2----------------------------------------|
Ab|---2------------------------------2----------------------------------------|
Eb|---0------------------------------0----------------------------------------|
      

************************************************************************************


1st VERSE

  *Playing Note- Alternate up and downstrokes throughout verse

           Don't          wanna  be  so  careful
           
eb|--------7--7-x-x-------7--7-x-x-------7--7-x-x--------7--7-x-x-------------|
Bb|--------9--9-x-x-------9--9-x-x-------9--9-x-x--------9--9-x-x-------------|
Gb|--------9--9-x-x-------9--9-x-x-------9--9-x-x--------9--9-x-x-------------|
Db|--------9--9-x-x-------9--9-x-x-------9--9-x-x--------9--9-x-x-------------|
Ab|--------7--7-x-x-------7--7-x-x-------7--7-x-x--------7--7-x-x-------------|
Eb|--0-0--------------0---------------0---------------0-----------------------|


           Don't          care  enough to   mind       Don't    know     

eb|--------7--7-x-x-------7--7-x-x-------7--7-x-x------0--------2-------------|
Bb|--------9--9-x-x-------9--9-x-x-------9--9-x-x------2--------4-------------|
Gb|--------9--9-x-x-------9--9-x-x-------9--9-x-x------2--------4-------------|
Db|--------9--9-x-x-------9--9-x-x-------9--9-x-x------2--------4-------------|
Ab|--------7--7-x-x-------7--7-x-x-------7--7-x-x------0--------2-------------|
Eb|--0-0--------------0---------------0---------------------------------------|


           Leave      me    with     no  hand hold(?)

eb|--------7--7-x-x-------7--7-x-x-------7--7-x-x--------7--7-x-x-------------|
Bb|--------9--9-x-x-------9--9-x-x-------9--9-x-x--------9--9-x-x-------------|
Gb|--------9--9-x-x-------9--9-x-x-------9--9-x-x--------9--9-x-x-------------|
Db|--------9--9-x-x-------9--9-x-x-------9--9-x-x--------9--9-x-x-------------|
Ab|--------7--7-x-x-------7--7-x-x-------7--7-x-x--------7--7-x-x-------------|
Eb|--0-0--------------0---------------0---------------0-----------------------|



           To    climb   back  down

eb|--------7--7-x-x-------7--7-x-0---0-----0----------------------------------|
Bb|--------9--9-x-x-------9--9-x-0---0-------0--------------------------------|
Gb|--------9--9-x-x-------9--9-x-9---9---9-----9------------------------------|
Db|--------9--9-x-x-------9--9-x-9---9-9--------9-----------------------------|
Ab|--------7--7-x-x-------7--7-x-7--------------------------------------------|
Eb|--0-0--------------0----------7--------------------------------------------|

***********************************************************************************



PRE-CHORUS

    I'll  just   wait   for  the   landslide

eb|---------------------------------------------------------------------------|
Bb|--------------0------------------------------------------------------------|
Gb|--------------6-----6-----------2------2-----------------------------------|
Db|--------------6---6---6---------2---2----2---------------------------------|
Ab|--------------4---------4--0----0----------0-------------------------------|
Eb|---------------------------------------------------------------------------|

************************************************************************************



CHORUS

        Made    up    my    mind            to    make   me  

eb|--0------------0---------2-------2-------2----------2----------------------|
Bb|--0------------2---------2-------2-------2----------2----------------------|
Gb|--x------------2---------4-------4-------4----------4----------------------|
Db|--2------------2---------4-------4-------4----------4----------------------|
Ab|--2------------0---------2-------2-------2----------2----------------------|
Eb|--0------------------------------------------------------------------------|


     Whole                               again

eb|--0----------0--------0---------0-----0-------0------0-------0-------------|
Bb|--0----------0--------0---------0-----0-------0------0-------0-------------|
Gb|--6----------6--------6---------2-----4-------4------4-------4-------------|
Db|--6----------6--------6---------2-----4-------4------4-------4-------------|
Ab|--4----------4--------4---------0-----2-------2------2-------2-------------|
Eb|---------------------------------------------------------------------------|



        Take    up    your  time                 when   i'm   a-  

eb|--0------------0---------2-------2-------2----------2----------------------|
Bb|--0------------2---------2-------2-------2----------2----------------------|
Gb|--x------------2---------4-------4-------4----------4----------------------|
Db|--2------------2---------4-------4-------4----------4----------------------|
Ab|--2------------0---------2-------2-------2----------2----------------------|
Eb|--0------------------------------------------------------------------------|


    
     -lone

eb|---0------0---0---0---0-------0-----0---0---0--0---------------------------|
Bb|---0------0---0---0---0-------0-----0---0---0--0---------------------------|
Gb|---4------4---4---4---4-------2-----2---2---2--2---------------------------|
Db|---4------4---4---4---4-------2-----2---2---2--2---------------------------|
Ab|---2------2---2---2---2-------0-----0---0---0--0---------------------------|
Eb|---------------------------------------------------------------------------|


***********************************************************************************



2nd VERSE




           Don't          wanna  be  so    anxious
           
eb|--------7--7-x-x-------7--7-x-x-------7--7-x-x--------7--7-x-x-------------|
Bb|--------9--9-x-x-------9--9-x-x-------9--9-x-x--------9--9-x-x-------------|
Gb|--------9--9-x-x-------9--9-x-x-------9--9-x-x--------9--9-x-x-------------|
Db|--------9--9-x-x-------9--9-x-x-------9--9-x-x--------9--9-x-x-------------|
Ab|--------7--7-x-x-------7--7-x-x-------7--7-x-x--------7--7-x-x-------------|
Eb|--0-0--------------0---------------0---------------0-----------------------|


           Don't          kept  standing  in line      I       lay   

eb|--------7--7-x-x-------7--7-x-x-------7--7-x-x------0--------2-------------|
Bb|--------9--9-x-x-------9--9-x-x-------9--9-x-x------2--------4-------------|
Gb|--------9--9-x-x-------9--9-x-x-------9--9-x-x------2--------4-------------|
Db|--------9--9-x-x-------9--9-x-x-------9--9-x-x------2--------4-------------|
Ab|--------7--7-x-x-------7--7-x-x-------7--7-x-x------0--------2-------------|
Eb|--0-0--------------0---------------0---------------------------------------|


           in       an    open          fire

eb|--------7--7-x-x-------7--7-x-x-------7--7-x-x--------7--7-x-x-------------|
Bb|--------9--9-x-x-------9--9-x-x-------9--9-x-x--------9--9-x-x-------------|
Gb|--------9--9-x-x-------9--9-x-x-------9--9-x-x--------9--9-x-x-------------|
Db|--------9--9-x-x-------9--9-x-x-------9--9-x-x--------9--9-x-x-------------|
Ab|--------7--7-x-x-------7--7-x-x-------7--7-x-x--------7--7-x-x-------------|
Eb|--0-0--------------0---------------0---------------0-----------------------|



           As  you   watch  me   burn  down    

eb|--------7--7-x-x-------7--7-x-0---0-----0----------------------------------|
Bb|--------9--9-x-x-------9--9-x-0---0-------0--------------------------------|
Gb|--------9--9-x-x-------9--9-x-9---9---9-----9------------------------------|
Db|--------9--9-x-x-------9--9-x-9---9-9--------9-----------------------------|
Ab|--------7--7-x-x-------7--7-x-7--------------------------------------------|
Eb|--0-0--------------0----------7--------------------------------------------|


**********************************************************************************


PRE-CHORUS

     and       Wait     along   the   wayside

eb|---------------------------------------------------------------------------|
Bb|--------------0------------------------------------------------------------|
Gb|--------------6-----6-----------2------2-----------------------------------|
Db|--------------6---6---6---------2---2----2---------------------------------|
Ab|--------------4---------4--0----0----------0-------------------------------|
Eb|---------------------------------------------------------------------------|

**********************************************************************************



2nd CHORUS (no changes)




***********************************************************************************

SOLO

   *The solo to this song is pretty simple so i am going to save myself the time 
   of having to tab it out.  However, if you want the SOLO tabbed send me an email
   and i will get it to you.



***********************************************************************************

 3rd VERSE




         I Don't          wanna  let   you  down
           
eb|--------7--7-x-x-------7--7-x-x-------7--7-x-x--------7--7-x-x-------------|
Bb|--------9--9-x-x-------9--9-x-x-------9--9-x-x--------9--9-x-x-------------|
Gb|--------9--9-x-x-------9--9-x-x-------9--9-x-x--------9--9-x-x-------------|
Db|--------9--9-x-x-------9--9-x-x-------9--9-x-x--------9--9-x-x-------------|
Ab|--------7--7-x-x-------7--7-x-x-------7--7-x-x--------7--7-x-x-------------|
Eb|--0-0--------------0---------------0---------------0-----------------------|


           Don't          care to  bring this   up  again
           
eb|--------7--7-x-x-------7--7-x-x-------7--7-x-x--------7--7-x-x-------------|
Bb|--------9--9-x-x-------9--9-x-x-------9--9-x-x--------9--9-x-x-------------|
Gb|--------9--9-x-x-------9--9-x-x-------9--9-x-x--------9--9-x-x-------------|
Db|--------9--9-x-x-------9--9-x-x-------9--9-x-x--------9--9-x-x-------------|
Ab|--------7--7-x-x-------7--7-x-x-------7--7-x-x--------7--7-x-x-------------|
Eb|--0-0--------------0---------------0---------------0-----------------------|


        In  my          defense     it   doesn't  make   sense
           
eb|--------7--7-x-x-------7--7-x-x-------7--7-x-x--------7--7-x-x-------------|
Bb|--------9--9-x-x-------9--9-x-x-------9--9-x-x--------9--9-x-x-------------|
Gb|--------9--9-x-x-------9--9-x-x-------9--9-x-x--------9--9-x-x-------------|
Db|--------9--9-x-x-------9--9-x-x-------9--9-x-x--------9--9-x-x-------------|
Ab|--------7--7-x-x-------7--7-x-x-------7--7-x-x--------7--7-x-x-------------|
Eb|--0-0--------------0---------------0---------------0-----------------------|


        Why   you     even      come around 

eb|--------7--7-x-x-------7--7-x-0---0-----0----------------------------------|
Bb|--------9--9-x-x-------9--9-x-0---0-------0--------------------------------|
Gb|--------9--9-x-x-------9--9-x-9---9---9-----9------------------------------|
Db|--------9--9-x-x-------9--9-x-9---9-9--------9-----------------------------|
Ab|--------7--7-x-x-------7--7-x-7--------------------------------------------|
Eb|--0-0--------------0----------7--------------------------------------------|


**********************************************************************************


BRIDGE 

        Then    over and over  you lay a-round     

eb|---------------------------------------------------------------------------|
Bb|--------------0------------------------------------------------------------|
Gb|--------------6-----6-----------2------2-----------------------------------|
Db|--------------6---6---6---------2---2----2---------------------------------|
Ab|--------------4---------4--0----0----------0-------------------------------|
Eb|---------------------------------------------------------------------------|


          And    watch  me go back out          before      the 

eb|---------------------------------------------------------------------------|
Bb|--------------0------------------------------------------------------------|
Gb|--------------6-----6-----------4------4-----------------------------------|
Db|--------------6---6---6---------4---4----4--------------------7-----7----7-|
Ab|--------------4---------4--0----2----------2------------------7-----7----7-|
Eb|--------------------------------------------------------------5-----5----5-|


    Storm

eb|---------------------------------------------------------------------------|
Bb|---------------------------------------------------------------------------|
Gb|---------------------------------------------------------------------------|
Db|----7-----7---7-----7-----7-----7------------------------------------------|
Ab|----7-----7---7-----7-----7-----7------------------------------------------|
Eb|----5-----5---5-----5-----5-----5------------------------------------------|


**********************************************************************************

3rd CHORUS (Subtle changes)

   The part where he sings "Take up your time..... ah, yeah" he goes back to the 
   "Ab" momentarily, before restarting the CHORUS


   The song ends with the progression  "C - Ab - Eb" 
**********************************************************************************

  This is my first attempt at the art of TABBING, if you find any errors or you want
  the SOLO TAB email me ---- leadmaster79@hotmail.com

  Hope you enjoy it!!
===============================================================================
Suggest correction
What's this?
You can suggest a correction to this tab. Community and Mods will review your correction and vote to approve or reject it.
comments
We did not receive enough feedback on this tab! Please rate:
print report bad tab
1 2 3 4 5
guest
You may want to rate the tab now too:
select rating
Please do not post tabs as comments. Select "correction" instead!