Oops, an error
Loading. Please wait.

Hasta Que Me Muera Chords

89 views 3 this week
no commentswrite comment
1 2 3 4 5
3 more votes to show rating
add to favorites
launch autoscroll
font size
0
reset
transpose
0
reset
display chords
guitar tuner
×
Best way to learn
"Hasta Que Me Muera"
Autoscroll
slow
fast
+/-
esc
set tempo
stop
INTRO: A - F# - D - E


A
triste voy a caminar ,mi  destino ire  a buscar
F#
hasta qe me muera ,hasta que me muera
D
nada de esto va a cambiar , todo va a seguir igual
E
hasta qe me muera , hasta qe me muera.

A
en vos siempre pensare , tu sonrisa extrañare
F#
hasta que me muera ,hasta que me muera.
D
voy a encerrarme en el bar ,para tratar de olvidar
E
hasta que me muera ,hasta que me muera .


    A   (x2)            F#(x2)
1------------|---------------------|
2-5-3----------|-------5-3-----------|
3------6--2-----|-------------6---2---|
4---------------|----------------------|
5-----------------|---------------------|
6------------------|---------------------|


     D              E
1------------|---------------------|
2-5-3----------|-------5-3-----------|
3------6--2-----|-------------5--3-4-5-5-6-6-7-7-8
4---------------|----------------------|
5-----------------|---------------------|
6------------------|---------------------|

A
no me pienso rescatar siempre me voy a drogar
F#
hasta que me muera, hasta que me muera
D
en bicicleta andare un niño siempre sere
E
hasta que me muera , hasta que me muera
A
voy a ser mi frustracion dentro de mi corazon
F#
hasta que me muera.
D
se que no vas a volver pero igual te esperare
E
hasta que me muera , hasta que me muera.
A
hasta que me muera.
F#
hasta que me muera
D
hasta que me muera, hasta que me muera
E
hasta que me muera, hasta que me muera.
Suggest correction
Give kudos to tab author, rate the tab!
1 2 3 4 5
comments
print report bad tab
guest
You may want to rate the tab now too:
select rating
Wanna post a correction for this tab? Suggest correction