Oops, an error
Loading. Please wait.

Can Do Tab

version 1
version 1

Intro

Whole song

16,549 views 12 this week
1 commentread comment
1 2 3 4 5
1 last vote to show rating
add to favorites
launch autoscroll
font size
0
reset
how to read this tab
guitar tuner
Autoscroll
slow
fast
+/-
esc
set tempo
stop
Help us to improve Ultimate-Guitar.com Take our survey!
×
Author
CAN DO by GRANRODEO
Viva KUROKO NO BASKET! LOL hahaha... No one posted it, so I had to learn it by myself. 
Of course, I know lots of people already know this.
Standard Tuning

e|---------------------------------------|
B|-4h5-5-7-9-7-5-7-9-7-5-7-9-12-10-9-7-5-|
G|---------------------------------------|
D|---------------------------------------|
A|---------------------------------------|
E|---------------------------------------|

e|-------------------------------------|
B|-5-7-9-7-5-7-9-7-5-7-9-5-------------|
G|-------------------------2-1-2-1-2-4-|
D|-------------------------------------|
A|-------------------------------------|
E|-------------------------------------|

e|-----------------------------------|
B|-5-7-9-7-5-7-9-7-5-7-9-12-10-9-7-5-|
G|-----------------------------------|
D|-----------------------------------|
A|-----------------------------------|
E|-----------------------------------|

e|-------------------------------------|
B|-5-7-9-7-5-7-9-7-5-7-9-5-------------|
G|-------------------------2-1-2-1-2-4-|
D|-------------------------------------|
A|-------------------------------------|
E|-------------------------------------|

e|--------------------------7-|
B|-5\4-5/7-9-7-5-0-10-9-7-5---|
G|----------------------------|
D|----------------------------|
A|----------------------------|
E|----------------------------|

~end~
Note: I'm not so sure for the last part, though. =w= It's too fast for my level.
Suggest correction
Give kudos to tab author, rate the tab!
1 2 3 4 5
comments
print report bad tab
1 comment total.
0 reply
KEKC ZLOI 41 Oct 09, 2013 02:40 AM

this game is not so.
E-----------------------------
B-----------------------------
G----9-11-13-11---------------
D-7h9-9-9--9--9---------------
A-----------------------------
E----------------------------- 2x

E-----------------------------
B---------12-10---------------
G-9-11-13-------13-11-9-------
D--9--9--9--9--9--9--9-9------
A-----------------------------
E-----------------------------

E-----------------------------
B-----------------------------
G----9-11-13-11---------------
D-7h9-9-9--9--9---------------
A-----------------------------
E----------------------------- 2x

E-----------------------------
B-----------------------------
G-9-11-13--14-13-14-13-14-16--
D--9--9--9--------------------
A-----------------------------
E-----------------------------

end intro
E-12--14--16--14--16h17h16-14-12-19
B---12--12--12--12-----------------

guest
You may want to rate the tab now too:
select rating
Wanna post a correction for this tab? Suggest correction