Oops, an error
Loading. Please wait.

Fuzzy Chords

version 2
version 2

Whole song

Interactive

22,046 views 33 this week
no commentswrite comment
1 2 3 4 5
x 3
add to favorites
launch autoscroll
font size
0
reset
transpose
0
reset
simplify chords
display chords
guitar tuner
Autoscroll
slow
fast
+/-
esc
set tempo
stop
Help us to improve Ultimate-Guitar.com Take our survey!
×
Author
Difficulty
Capo
novice
1st fret
This song should be played using capo on the 1st.

Ths basic strumming during the song goes like this:

e|-0-0-0-0-0-0-0-0-0-0-0-0-0-0-0-0-|
B|-1-1-3-1-1-1-3-1-1-1-3-1-1-1-3-1-|
G|-0-0-0-0-0-0-0-0-0-0-0-0-0-0-0-0-|
D|-2-2-2-2-2-2-2-2-2-2-2-2-2-2-2-2-|
A|-3-3-3-3-3-3-3-3-3-3-3-3-3-3-3-3-|
E|---------------------------------|

 Em   Em9   D
e|-0-0-0-0-0-0-0-0-0-0-0-0-3-3-3-0-|
B|-0-0-3-0-0-0-3-0-0-0-3-0-2-2-2-2-|
G|-0-0-0-0-0-0-0-0-0-0-0-0-3-3-3-3-|
D|-2-2-2-2-2-2-2-2-2-2-2-2-0-0-0-0-|
A|-2-2-2-2-2-2-2-2-2-2-2-2---------|
E|-0-0-0-0-0-0-0-0-0-0-0-0---------|


[Verse 1]

C   C9                         Em   Em9   D
Bring me home to this house of many days
            C   C9                        Em   Em9   D
Just lay me on the floor hard and cool as slate
                   C   C9                     Em   Em9
You know I love it more and more than before I ran away
                   C   C9                        Em   Em9
It triggers off so many hurts hurtful words and broken plates


[Chorus 1]

  D
I lied to
       Em   Em9
Now I'm fuzzy
 D
I've been lied to


[Verse 2]
(verse 1 chords progression)

C   C9
All and all the world is small enough for both of us
To meet upon the interstate waiting on a train
And just when those big arms lift up fall in love with no time to say it


[Chorus 2]
(same as chorus 1)

I liked to
Now Im fuzzy
Ive lied to
Now Im fuzzy
Fuzzy now


Chorus "riff":

e|-------------------------------------------|
B|-------------------------------------------|
G|-12-14-12------12-14-12--12-14-16-14--12---|
D|-------------14---------------------14-----|
A|-------------------------------------------|
E|-------------------------------------------|


[Verse 3]
(same as verse 1)

Here we are in our car driving down the street
Were looking for a place to stop have a bite to eat
We hunger for a bit of faith to replace the fear
We water like a dead bouquet does no good does it dear


[Chorus 3]
(same as above)

I lied to
Now Im fuzzy
Weve been lied to
Now Im fuzzy
Fuzzy now
Lied to
Suggest correction
Give kudos to tab author, rate the tab!
1 2 3 4 5
comments
print report bad tab
guest
You may want to rate the tab now too:
select rating
Wanna post a correction for this tab? Suggest correction