Oops, an error
Loading. Please wait.

Testimony tab

76 views 1 this week
no commentswrite comment
1 2 3 4 5
3 more votes to show rating
add to favorites
×
Save as Personal and add changes to this tab that will be seen only by you. Learn more ›
×
You can save this tab as Personal to edit and correct it or add notes. All changes will be seen only by you. Learn more »
launch autoscroll
font size
0
reset
how to read this tab
guitar tuner
edit
Autoscroll
slow
fast
+/-
esc
set tempo
stop
Standard tuning: E B G D A E.

4. TESTIMONY

-----
No comments
-----

Intro:

Bass Riff 1: x1 (through the first two lines in all Verses sounds a similar riff
                 - Bass Riff 2 - see the tab after the first Chorus)
    E
e[------------------------------------------------------------]
b[------------------------------------------------------------]
g[------------------6--6--4-------------------6--4-----4--6---]
d[--4--6--6---4--6-----------6--4--6--6-------------6---------]
a[------------------------------------------------------------]
e[------------------------------------------------------------]
Verse 1:

E
How can I give a testimony of my life

When I'm still trying hard to hold my head up high

    D(7)   A(7)               E
I'm trying so hard to hold my head up high
                          e[----------------------------------------------0------------------]
                          b[----------------------------------------------4b(5)--------------]
                          g[-----------------6--4-----4--6-----------------------------------]
                          d[--4----6----6----------6-----------4--6--6-----------------------]
                          a[-----------------------------------------------------------------]
                          e[----------------------------------------------------0-0-0-0-2-0--]
                                                                          (bend)

Chorus:

    E
And every time I turn around
A
Feel as though I've let you down
F#m(7)           A
Always something else
    E
And every time I turn around
A
Feel as though I've let ya down
    F#m(7)           A
But I can't outrun myself

Bass Riff 2: x1

e[----------------------------------------------------------]
b[----------------------------------------------------------]
g[------------------6--6--4-------------------------4-------]
d[--4--6--6---4--6-----------6--4--6--6-------4--6-----6----]
a[----------------------------------------------------------]
e[----------------------------------------------------------]


Verse 2:

E
How can I give a testimony of my time

When it's so hard to pen a simple valentine
   D(7)            A(7)  E
It weighs a little heavy on my mind
                    e[----------------------------------------------0------------------]
                    b[----------------------------------------------4b(5)--------------]
                    g[-----------------6--4-----4--6-----------------------------------]
                    d[---4--6---6------------6-----------4--6--6-----------------------]
                    a[-----------------------------------------------------------------]
                    e[----------------------------------------------------0-0-0-0-2-0--]
                                                                    (bend)

Chorus:

    E
And every time I turn around
A
Feel as though I've let you down
F#m(7)           A
Always something else
    E
And every time I turn around
A
Feel as though I've let ya down
      F#m(7)          A
But I can't outrun myself

Middle part:

B         C#m
Oh oh you know
     B                                  C#m
If I told ya once I've told you loads before
  B                A
I couldn't love ya more
                    e[----------------------------------------------0------------------]
                    b[----------------------------------------------4b(5)--------------]
                    g[-----------------6--4-----4--6-----------------------------------]
                    d[---4--6---6------------6-----------4--6--6-----------------------]
                    a[-----------------------------------------------------------------]
                    e[----------------------------------------------------0-0-0-0-2-0--]
                                                                    (bend)

Chorus:

    E
And every time I turn around
A
Feel as though I've let you down
F#m(7)           A
Always something else
    E
And every time I turn around
A
Feel as though I've let ya down
      F#m(7)         A
But I can't outrun myself
E        A
No oh oh oh
      F#m(7)         A
But I can't outrun myself
E A F#m(7) A
Ooh ooh ooh

Ending:

    E
e[------------------------------------------------------------]
b[------------------------------------------------------------]
g[------------------6--6--4-------------------6--4-----4--6---]
d[--4--6--6---4--6-----------6--4--6--6-------------6---------]x2
a[------------------------------------------------------------]
e[------------------------------------------------------------]

            
            
Suggest correction
Creating personal tab
Creating personal tab
You can edit any tab online and save it as your Personal.

You can edit, replace or remove any tab part or add personal notes – all changes will be seen only by you.

Personal tabs can be accessed anytime from any device, even offline.
Learn more »
Give kudos to tab author, rate the tab!
1 2 3 4 5
comments
print report bad tab
guest
You may want to rate the tab now too:
select rating
Wanna post a correction for this tab? Suggest correction