Oops, an error
Loading. Please wait.

Prohibido Prohibir Bass

17 views 1 this week
no commentswrite comment
1 2 3 4 5
3 more votes to show rating
add to favorites
launch autoscroll
font size
0
reset
guitar tuner
×
Best way to learn
"Prohibido Prohibir"
Autoscroll
slow
fast
+/-
esc
set tempo
stop
Grupo: Grass
Canción: prohibido prohibir

*Nota: los grass tokan kon un bajo de 5 kuerdas pero este tab es para uno de 4.

Intro:           

Primero entra la guitarra sola los dos primeros tiempos y después esto:

g-------------------------------------------------
d-------------------------------------------------   x4
a--------6------------------6---------------------
e-----6-----6--4--3-4-5--6-----6--4---------------

Verso:                 (no importa komo sean las leyes....

Es igual ke la intro solo ke kon una nota mas al final, lo pongo te todas maneras

g----------------------------------------------
d----------------------------------------------  x4
a--------6------------------6------------------
e-----6-----6--4--3-4-5--6-----6--4--4---------

Estribillo:           (prohibido???..prohibir??..

g------------------------------------------------------------------------
d------------------------------------------------------------------------  x2
a------------------------------------------------------------------------
e----545454---2-3-4---54545---4-7---545454---2-3-4---54545---2-3---------

Intro  x2

Verso x4

Estribillo x2

Puente:

 Parte 1:            (No solo esto te da por pensar?.

g--------------------------------------------------------------
d--------10----------------------10----------------------------   x4
a----10------10--8---7-8-9--10-10--10-8------------------------
e--------------------------------------------------------------


Aki es kuando se para la musika y el bajo hace una paranoia rara 
ke yo kreo ke es algo asi:

g------------------
d----------10------
a-----9/10---------
e------------------

 Parte 2:

    Tras unos segundos donde solo hay guitarra:

g---------------------------------------------------------------
d---------------------------------------------------------------
a---------------------------------------------------------------
e----555---5555-6---555---5555-6---555---5555-6---5555----------

g-----------------------
d-----------------------   -->este kacho te lo puedes saltar si no kieres komplikarte ,
a-----------------------      nisikiera estoi seguro de ke aki el bajo haga algo.
e----5565-565-565-------

g--------------------------------------------------------------
d--------------------------------------------------------------
a--------------------------------------------------------------
e----555---5555-6---555---5555-6---555---5555-6---5555---------

 Parte 3:

g------------------------------333-3-3---------------------333-3-3--------------
d-------------------------------------------------------------------------------
a-------------------------------------------------------------------------------
e----2-3----1-1-1--111--1-1-1-----------1-1-1--111--1-1-1-----------------------

g---------------------------------------------------------------
d---------------------------------------------------------------
a---------------------------------------------------------------
e----1-1-1--111--1-1-1--111--1-1-1--111-1-1-1--5/2-5/2----------

Estribillo  x2

Intro  x4

Parte final:            (durante el peazo grito del cantante)

g-------------------------------------------------
d-------------------------------------------------    x3
a-------6--------------------6--------------------
e----6-----6--4---3-4-5---6-----6--4--4-----------

g--------------------------------------------
d--------------------------------------------
a-------6---------------------6--------------
e----6-----6--4---3-4-5---6-6---6-4----------


y esto es todo, sugerencias y tal y kual:

bichoraro84@
Suggest correction
Give kudos to tab author, rate the tab!
1 2 3 4 5
comments
print report bad tab
guest
You may want to rate the tab now too:
select rating
Wanna post a correction for this tab? Suggest correction