Oops, an error
Loading. Please wait.

Under The Atmosphere Tab

127 views 1 this week
no commentswrite comment
1 2 3 4 5
please rate
add to favorites
launch autoscroll
font size
0
reset
how to read this tab
guitar tuner
Autoscroll
slow
fast
+/-
esc
set tempo
stop
Help us to improve Ultimate-Guitar.com Take our survey!
×
Author
-------------------------------------------------------------------------------
                      UNDER THE ATMOSPHERE - Grass Widow
-------------------------------------------------------------------------------
Tabbed by: Em
E-mail:

Tuning: Standard

Intro/Verse
e|---------------------------------------------------------------------------|
B|---------------------------------------------------------------------------|
G|---------------------------------------------------------------------------|
D|--11--11-11--11-11--9--9-9--9-9--9--9--9-9/8--8----------------------------|
A|--9---9--9---9--9---7--7-7--7-7--7--7--7-7/6--6--9--9-9--9-9---------------|
E|-------------------------------------------------7--7-7--7-7---------------|

Pre-Chorus 1
e|---------------------------------------------------------------------------|
B|--7-9--11--11-11--11-11-/-9--9-9--9-9--9-9--9-9-/-11-11--------7-9---------|
G|-------11--11-11--11-11-/-9--9-9--9-9--9-9--9-9-/-11-11-11-----------------|
D|-----------------------------------------------------------9-9-------------|
A|---------------------------------------------------------------------------|
E|---------------------------------------------------------------------------|

e|---------------------------------------------------------------------------|
B|--11--11-11--11-11-/-9--9-9--9-9--9-9--9-9-/-11-11-4--4-4--4-4-------------|
G|--11--11-11--11-11-/-9--9-9--9-9--9-9--9-9-/-11-11-4--4-4--4-4-------------|
D|---------------------------------------------------------------------------|
A|---------------------------------------------------------------------------|
E|---------------------------------------------------------------------------|

Chorus
e|---------------------------------------------------------------------------|
B|---------------------------------------------------------------------------|
G|--9--9-9--8--8/6-6--6-6--6-6--6--6--6--------------------------------------|
D|---------------------------------------6--6/4-4--4-4--4-4------------------|
A|---------------------------------------------------------------------------|
E|---------------------------------------------------------------------------|

e|---------------------------------------------------------------------------|
B|---------------------------------------------------------------------------|
G|--11--11-11--11-11--9--------11-9------------------------------------------|
D|-----------------------(11)-------11-10-9----------------------------------|
A|------------------------------------------11-7-6-4--4--4/9--9 11-----------|
E|---------------------------------------------------------------------------|

Pre Chorus 2
e|---------------------------------------------------------------------------|
B|--7-9--11--11-11--11-11-/-9--9-9--9-9--9-9--9------------------------------|
G|-------11--11-11--11-11-/-9--9-9--9-9--9-9--9-10-9-------------------------|
D|---------------------------------------------------10-9--9-9--9-9----------|
A|---------------------------------------------------------------------------|
E|---------------------------------------------------------------------------|

e|---------------------------------------------------------------------------|
B|---------------------------------------------------------------------------|
G|--11--11-11--9-11----9--------7-6-4--4-------------------/9--9-9-10--10-10-|
D|------------------12---9-9--9------------6-5-4--4/2--2---------------------|
A|---------------------------------------7-----------------------------------|
E|---------------------------------------------------------------------------|

e|---------------------------------------------------------------------------|
B|----------------9--9-9-9h10p9----------------------------------------------|
G|--10h11--11-11----------------11----11-11--11-11---------------------------|
D|---------------------------------------------------------------------------|
A|---------------------------------------------------------------------------|
E|---------------------------------------------------------------------------|

The number of times a chord or note is written might be slightly off, listen to the recording.
************************************

| /   slide up
| \   slide down
| h   hammer-on
| p   pull-off
| ~   vibrato
| +   harmonic
| x   Mute note
| b   Bend
| pb  Pre-bend
| br  Bend release
| pbr Pre-bend release
| brb Bend release bend

************************************
http://www.grasswidow.org/
Suggest correction
What's this?
You can suggest a correction to this tab. Community and Mods will review your correction and vote to approve or reject it.
comments
We did not receive enough feedback on this tab! Please rate:
print report bad tab
1 2 3 4 5
guest
You may want to rate the tab now too:
select rating
Please do not post tabs as comments. Select "correction" instead!