Oops, an error
Loading. Please wait.

Bertha Bass Tab

9,113 views 3 this week
no commentswrite comment
1 2 3 4 5
1 last vote to show rating
add to favorites
launch autoscroll
font size
0
reset
guitar tuner
Autoscroll
slow
fast
+/-
esc
set tempo
stop
Help us to improve Ultimate-Guitar.com Take our survey!
×
Author
-------------------------------------------------------------------------------
			     Bertha - Grateful Dead
-------------------------------------------------------------------------------

Tabbed By : Au79 XY
e-mail: william.lamar@yahoo.com

This is the basic Chord/Bass line for the song. It is extremely simple but, in keeping 
the Dead's way of play it's best sounding when you jam over that basic Structure.
Keep enjoying the Dead's music, Peace out guys :).

Tuning: Standard

G|---------------------------------|
D|---------------------------------|          (All of the intro and verses)
A|-----------3---------------------|
E|---3--3-3-----3-3-3--------------|

G|---------------------------------------------------------------------------|
D|------------0--0--------------------0----------------0-0-0-0---------------|
A|-------0-3--------3--3---------33------3-3---------------------------------|
E|----3-------------------3--3----------------3-3-3-3------------------------|

G|---------------------------------------------------------------------------|
D|---------------------------------------------------------------------------|
A|----3-3-3-3---0-0-0-0---3-3-3-3--------------------------------------------|
E|---------------------------------------------------------------------------|

^Chorus (Once finished chorus immediately revert back to the intro/verse pattern).
Suggest correction
Give kudos to tab author, rate the tab!
1 2 3 4 5
comments
print report bad tab
guest
You may want to rate the tab now too:
select rating
Wanna post a correction for this tab? Suggest correction