Oops, an error
Loading. Please wait.

China Doll tab

1,597 views 78 this week
no commentswrite comment
1 2 3 4 5
x 6
add to favorites
×
Save as Personal and add changes to this tab that will be seen only by you. Learn more ›
×
You can save this tab as Personal to edit and correct it or add notes. All changes will be seen only by you. Learn more »
launch autoscroll
font size
0
reset
how to read this tab
guitar tuner
edit
Autoscroll
slow
fast
+/-
esc
set tempo
stop
Author
Difficulty
About this tab version
Theres nothing like the good old Grateful Dead. Was this info helpful? Yes No
[Intro]
E|--0h1p0----------------------------------------------------|
B|---------3-------------------------------------------------|
G|------------2-----2----------------------------------------|
D|---------------3-----2h3p2-----0---------------------------|
A|----------------------------3------------------------------|
E|-----------------------------------------------------------|

E|---1-----------1-----1-------1-----------------------------|
B|------3-----3-----3------3---3-----------------------------|
G|---------2-------------------2-----------------------------|
D|-----------------------------0-----------------------------|
A|-----------------------------------------------------------|
E|-----------------------------------------------------------|


Dm            Fmaj7
A pistol shot, at five o'clock,
Bdim7                 Bb
The bells of heaven ring,
A7               Dm
Tell me what you done it for,
     F                C         A7
No I won't tell you a thing.


       C                          A7
E|------0----------------------------------------------------|
B|------1--------------------------2-------------------------|
G|------0--------------------------0-------------------------|
D|------2--------------------------2-------------------------|
A|------3---------------2h3p2------0-------------------------|
E|-----------------------------3-----------------------------|
       thing


Dm          Fmaj7
Yesterday I begged you   
Bdim7              Bb
Before I hit the ground,
A7          Dm  
All I leave behind me
   F           C
Is only what I found.

       C                          A7
E|------0----------------------------------------------------|
B|------1--------------------------2-------------------------|
G|------0--------------------------0-------------------------|
D|------2--------------------------2-------------------------|
A|------3---------------2h3p2------0-------------------------|
E|-----------------------------3-----------------------------|
      found

Dm         Fmaj7
If you can abide it,
Bdim7                 Bb
Let the hurdy-gurdy play,
A7                 Dm
Stranger ones have come by here
  F              C 
Before they flew away.


  C                          A7
E|------0----------------------------------------------------|
B|------1--------------------------2-------------------------|
G|------0--------------------------0-------------------------|
D|------2--------------------------2-------------------------|
A|------3---------------2h3p2------0-------------------------|
E|-----------------------------3-----------------------------|
       away

  
Dm            Fmaj7
I will not condemn you
Bdim7             Bb
Nor yet would I deny,
A7              Dm    
I would ask the same of you,
    F                 C     Am
But failing, will not die.
A7         D        

                       A
Take up your china doll, (take up your china doll, Whoooo)
          G                                         D
It's only fractured; just a little nervous from the fall.


E|-----3---2---0-------------------2-------------------------|
B|-----------------3----0----------3-------------------------|
G|-------------------------2---0---2-----0-------------------|
D|---------------------------------0----------4----0---------|
A|-----------------------------------------------------------|
E|-----3-----------------------------------------------------|


G                 D
La-la-la-la-la-la-la.

************************************

| h  Hammer-on
| p  Pull-off

************************************

            
            
Suggest correction
Creating personal tab
Creating personal tab
You can edit any tab online and save it as your Personal.

You can edit, replace or remove any tab part or add personal notes – all changes will be seen only by you.

Personal tabs can be accessed anytime from any device, even offline.
Learn more »
comments
print report bad tab
guest
You may want to rate the tab now too:
select rating
Wanna post a correction for this tab? Suggest correction