Oops, an error
Loading. Please wait.

Dark Star chords

version 1
version 1

Whole song

Interactive

16,665 views 60 this week
1 commentread comment
1 2 3 4 5
x 12
add to favorites
×
Save as Personal and add changes to this tab that will be seen only by you. Learn more ›
×
You can save this tab as Personal to edit and correct it or add notes. All changes will be seen only by you. Learn more »
launch autoscroll
font size
0
reset
transpose
0
reset
simplify chords
display chords
guitar tuner
edit
Autoscroll
slow
fast
+/-
esc
set tempo
stop
Strumming
There is no strumming pattern for this song yet. and get +5 IQ
DARK STAR - GRATEFUL DEAD

Philingroovie


Verse 1

A  G      A      G A       G              A     G
Dark star crashes, pouring its light into ashes
Em   A  Em   A      Em      A                   Em   A          
Reason tatters, the forces tear loose from the axis
A    G       A      G
Search light casting
    A             G         A        G
for faults in the clouds of delusion

  
                     E|------------------------------0------|
                     B|---2--3--5--3--2--3--2--0-----0------|
                     G|------------------------------0------|                    
                     D|------------------------------2------|
                     A|------------------------------2------|
                     E|------------------------------0------| 
Bridge:

 A       Asus4  A
Shall we go,           you   and   I    while    can

                     E|------------------------------------------------------------------------------|
                     B|---2--3--5--3--2--3--2--0--2--0-----------------------------------------------|
                     G|---------------------------------2--------------------------------------------|
                     D|------------------------------------------0---------0-------------------------|
                     A|------------------------------------0-h2-0---0-h2-0---0-h2-0-2-0------------0-|
                     E|-----------------------------------------------------------------2--0--2--0---|

A      Asus4  A
Through                the transitive nightfall of diamonds

Verse 2
A  G      A      G A       G              A     G
Mirror shatters in formless reflections of matter
A  G      A      G A       G              A     G
Glass hand dissolving in ice petal flowers revolving
A  G      A      G A       G              A     G
Lady in velvet recedes in the nights of good-bye

Bridge:



 
Fade: 

            
            
Suggest correction
Creating personal tab
Creating personal tab
You can edit any tab online and save it as your Personal.

You can edit, replace or remove any tab part or add personal notes – all changes will be seen only by you.

Personal tabs can be accessed anytime from any device, even offline.
Learn more »
comments
print report bad tab
1 comment total.
0 reply
Mr-Ton 10 Apr 15, 2017 02:19 PM

👍

guest
You may want to rate the tab now too:
select rating
Wanna post a correction for this tab? Suggest correction