Oops, an error
Loading. Please wait.

Fire On The Mountain Tab

version 2
version 2

Intro

  • A little different take on the intro, the latter part is pretty similiar.

Whole song

145 views 6 this week
no commentswrite comment
1 2 3 4 5
x 3
add to favorites
launch autoscroll
font size
0
reset
how to read this tab
guitar tuner
Autoscroll
slow
fast
+/-
esc
set tempo
stop
Help us to improve Ultimate-Guitar.com Take our survey!
×
Author
Difficulty
intermediate
About this tab version
A little different take on the intro, the latter part is pretty similiar. Was this info helpful? Yes No
Artist: Grateful Dead
Song: Fire On The Mountain
Tabbed by JDarks jdarks@jdarks.com


[Intro]

e|-----------------|---------------||-----------------|-------------|
B|-----------------|---------------||-7-7-----------7-|-------------|
G|---4-4-----4-4---|--2-2------2-2-||-----9-9-8-8-9---|-9-9-8-8-6---|
D|-------4-------4-|-------2-------||-----------------|-------------|
A|-2-------2-------|-0-------0-----||-----------------|-------------|
E|-----------------|---------------||-----------------|-------------|

e|----------------7-----5--5-4-4----4-4--|-----||--------------------------------------|
B|-7—7\6/7--9--7--7--7--5--------5--5-5--|-----||--------------9----12----10-10-9-9----|
G|-8—8\7/8--8--8--8--8--6--------6--6-6--|--%--||-11--11-10-11---11----11-----------9--|
D|-9—9\8/9--9--9--9--9--7--------7-------|--%--||--------------------------------------|
A|---------------------------------------|-----||--------------------------------------|
E|---------------------------------------|-----||--------------------------------------|


[Outro]

e|-------------------------------------------|---|
B|-12-11----------------------------------11-|---|
G|-------13-11-------------14-13----11-13----|-%-|
D|-------------13----------------14----------|---|
A|----------------14-13-12-------------------|---|
E|-------------------------------------------|---|



************************************

| x   Dead note
| g   Grace note
| (n) Ghost note
| h   Hammer-on
| p   Pull-off
| r   Release
| >   Accented note
| t   Tapping
| b   Bend
| br  Bend release
| pb  Pre-bend
| pbr Pre-bend release
| /   Slide up
| \   Slide down
| ~   Vibrato
| s   Slap
| P   Pop
| PM  Palm mute
| TR  Trill
| N   Tremolo

************************************
Suggest correction
Give kudos to tab author, rate the tab!
1 2 3 4 5
comments
print report bad tab
guest
You may want to rate the tab now too:
select rating
Wanna post a correction for this tab? Suggest correction