Oops, an error
Loading. Please wait.
We have Chord Pro version of Friend Of The Devil.
It's the closest thing you can get to the original song and it has interactive parts. Check out the tab »
×
9,341 views 3 this week
no commentswrite comment
1 2 3 4 5
3 more votes to show rating
add to favorites
×
Save as Personal and add changes to this tab that will be seen only by you. Learn more ›
×
You can save this tab as Personal to edit and correct it or add notes. All changes will be seen only by you. Learn more »
launch autoscroll
font size
0
reset
how to read this tab
guitar tuner
edit
Autoscroll
slow
fast
+/-
esc
set tempo
stop
-------------------------------------------------------------------------------
                             SONG NAME - Band Name
-------------------------------------------------------------------------------
Tabbed by:
Email:a.colavolpe@sbcglobal.net

sum 1 please tab this is halloween by marilyn manson, mr. crowley by cradle of filth, 
The WTO kills farmers by antiflagfor guitar thanks


Intro
e|-----------------------------------------------------------------|
B|-----------------0-------------0---------------0-----------------|
G|----------0----------------0---------------0------------2p0------|
D|---5------------------4---------------2-----------0--------------|
A|-----------------------------------------------------------------|
E|-----------------------------------------------------------------|

e|-----------------------------------------------------------------|
B|----------1-1-----1-1---------1-1-------0-0---------0------0-----|
G|----------0-0-----0-0---------0-0-------0-0------0-------0-------|
D|----------2-2-----0-0---------2-2-------0-0---5--------4---------|
A|--3------------2--------0----------------------------------------|
E|------------------------------------3----------------------------|

e|----------------------------------------------------------|
B|--------0-------------1-1-----1-1-----1-1---------0-0-----|
G|-----0-------2p0------0-0-----0-0-----0-0---------0-0-----|
D|--2--------0----------2-2-----0-0-----2-2---------0-0-----|
A|-------------------3-------2-------0----------------------|
E|----------------------------------------------3-----------|

  i lit out from reno........
verse
e|----------------------------------------------------|
B|-*---0---0-0---0---0--0--------------0--------------|
G|--------------------------2-0-2--(2)---2-0-2-0--(0)-|
D|----------------------------------------------------|
A|-*--------------------------------------------------|
E|----------------------------------------------------|

e|----------------------------------------------|
B|-0-0--0--0-0-(0)---0---0--0------0------------|
G|-----------------2---2------0--2---0-2-0-(0)--|
D|----------------------------------------------|
A|----------------------------------------------|
E|----------------------------------------------|


Set out running......
CHORUS
e|---------------------------------------------------------------|
B|------------------------0-0------------------------------------|
G|-----2--2-2-2-0----2-2---------2-0-0-0-0-0-------0-0--0p2--0---|
D|---0---------------------------------------2-------------------|
A|---------------------------------------------------------------|
E|---------------------------------------------------------------|

I get home
e|---------------------------------------------------------|
B|-----------------------------------0--0------------------|
G|---2--2--2--------2--(2)--2--2-------------2--0--0-------|
D|------------4--4-------------------------------------2---|
A|---------------------------------------------------------|
E|---------------------------------------------------------|


Sleep             to        night
e|-------------------------------------------------------|
B|-----------------------------------------------------*-|
G|---0-------------2----------2--------------------------|
D|----------------------------------0---(0)---0----------|
A|-----------------------------------------------------*-|
E|-------------------------------------------------------|

BRIDGE

got 2 reasons why.......
e|-------------------------------------0-0---------------|
B|--3-3-3-0---1--1-1p0----3----(3)-3-------3-(3)---------|
G|----------------------2--------------------------------|
D|---------------------------------------------------2---|
A|-------------------------------------------------------|
E|-------------------------------------------------------|

e|------------------------------------------------|
B|-1-1-1-1----0--0-------1---(1)--2---------------|
G|-----------------2--0-------------2--0--(0)-----|
D|------------------------------------------------|
A|------------------------------------------------|
E|------------------------------------------------|

e|---------------------------------------0----------0---------|
B|-0--3--3p1--0----1-1--0---------3--3---------3--------------|
G|-------------------------2-2--------------------------------|
D|------------------------------------------------------------|
A|------------------------------------------------------------|
E|------------------------------------------------------------|

e|-------------------------------------------------------------------|
B|-3------------1---1-1--1----0---0----------------------------------|
G|------------------------------------2----0---0---2--0--------------|
D|---------------------------------------------------------2---0-----|
A|----------2--------------------------------------------------------|
E|-------------------------------------------------------------------|


Verse
Got a wife in
e|-------------------------------------------------------|
B|--0-0-0-0----1-0----------------0----------------------|
G|------------------2---0--2--(2)----0--2--0--(0)--------|
D|-------------------------------------------------------|
A|-------------------------------------------------------|
E|-------------------------------------------------------|

e|------------------------------------------------------|
B|-0-0-0-0-0----(0)--0--3-------------------------------|
G|-------------------------2---2--0--2--0---0-----------|
D|------------------------------------------------------|
A|------------------------------------------------------|
E|------------------------------------------------------|

repeat chorus and end...

ill really need those songs tabbed the right way

| /  slide up
| \  slide down
| h  hammer-on
| p  pull-off
| ~  vibrato
| +  harmonic
| x  Mute note
===============================================================================

            
            
Suggest correction
Creating personal tab
Creating personal tab
You can edit any tab online and save it as your Personal.

You can edit, replace or remove any tab part or add personal notes – all changes will be seen only by you.

Personal tabs can be accessed anytime from any device, even offline.
Learn more »
Give kudos to tab author, rate the tab!
1 2 3 4 5
comments
print report bad tab
guest
You may want to rate the tab now too:
select rating
Wanna post a correction for this tab? Suggest correction