Oops, an error
Loading. Please wait.

Help On The Way Tab

version 2
version 2

Whole song

4,231 views 1 this week
no commentswrite comment
1 2 3 4 5
please rate
add to favorites
launch autoscroll
font size
0
reset
how to read this tab
guitar tuner
Autoscroll
slow
fast
+/-
esc
set tempo
stop
Help us to improve Ultimate-Guitar.com Take our survey!
×
Difficulty
intermediate
I have made a combination of Bobby's and Jerry's parts, and it sounds pretty good. The 
is pretty accurate, the Intro combines some of the Bass to keep it interesting.

Intro

|---8--8-----8--8----------------------------------|
|---9--9-----9--9----------------------------------|
|---10-10----10-10---------------------------------|
|---10-10----10-10---------------------------------|
|---8--8-----8--8--------------6h8---8/11-10-8-----|
|--------------------------6h8---------------------|

|---8--8-----8--8----------------------------------|
|---9--9-----9--9----------------------------------|
|---10-10----10-10---------------------------------|
|---10-10----10-10---------------------------------|
|---8--8-----8--8--------------------8/10-8-6------|
|--------------------------------------------------|

|---8--8-----8--8----------------------------------|
|---9--9-----9--9----------------------------------|
|---10-10----10-10---------------------------------|
|---10-10----10-10---------------------------------|
|---8--8-----8--8---------------------8-3-5-6------|
|--------------------------------------------------|

|---8--8-----8--8----------------------------------|
|---9--9-----9--9----------------------------------|
|---10-10----10-10---------------------------------|
|---10-10----10-10---------------------------------|
|---8--8-----8--8----------------8p6---------------|
|---------------------------------------8p6-9-8----|

Riff

|---8--8-----8--8-------------------------------|
|---9--9-----9--9-------------------------------|
|---10-10----10-10------------------------------|
|---10-10----10-10-----------10-----------------|
|---8--8-----8--8----8/10-11----13-11-10--------|
|----------------------------------------11-----|

|---10-10-10--8-8-8--6--6--4---------------------------|
|---11-11-11--8-8-8--6--6--6---------------------------|
|---12-12-12--8-8-8--7--7--5---------------------------|
|--------------------8--8------------------------------|
|--------------------8--8-------------6-7-8--6--5------|
|--------------------6--6-----------8------------------|

|------------------------8--8----8--8---------------------------|
|------------------------9--9----9--9---------------------------|
|------------------------10-10---10-10--------------------------|
|-----------10-----------10-10---10-10----------10--------------|
|---8/10-11----13-11-10--8--8----8--8---8/10-11----13-11-10-----|
|-----------------------------------------------------------11--|

|---10-10-10--8-8-8--6--6--4---------------------------|
|---11-11-11--8-8-8--6--6--6---------------------------|
|---12-12-12--8-8-8--7--7--5---------------------------|
|--------------------8--8------------------------------|
|--------------------8--8-------------6-7-8--6--6h8----|
|--------------------6--6-----------8------------------|

|---------------------------------------------------3-3-3-1----|
|---------6--4--3-----3--6--4--3-------3--4--3--1------------4-|
|-------5-----------5----------------5-------------------------|
|-----7---6--5--3--------6--5--3---6------5--3--1--------------|
|---8----------------------------------------------------------|
|--------------------------------------------------------------|

|---3-3--3-3--3------------------------------------|
|---1-1--1-1--1------------------------------------|
|---1-1--1-1--1------------------------------------|
|------------------------------10------------------|
|----------------------8/10-11----13-11-10---------|
|--------------------------------------------------|
then play the riff over again

and start over. Workin on a Slipknot tab hope I can send that soon. Hope this helped.

-Jerry Lives.
Suggest correction
What's this?
You can suggest a correction to this tab. Community and Mods will review your correction and vote to approve or reject it.
comments
We did not receive enough feedback on this tab! Please rate:
print report bad tab
1 2 3 4 5
guest
You may want to rate the tab now too:
select rating
Please do not post tabs as comments. Select "correction" instead!