Oops, an error
Loading. Please wait.

Loser Chords

64,434 views 249 this week
3 commentsread comments
1 2 3 4 5
excellent!
x 63
add to favorites
launch autoscroll
font size
0
reset
transpose
0
reset
simplify chords
- display chords -
guitar tuner
Tab Pro tools
  • play this tab
  • loop segment
  • change instrument
  • show fretboard
  • metronome
Autoscroll
slow
fast
+/-
esc
set tempo
stop
Contributor
Difficulty
novice
Loser
 Intro
E --------------------0--------------------|
B---------------------1--------------------|
g---------------------2--------------------|
D---1^2--0--1--0------2--------------------|
A------------------3--0--------------------|
E------------------------------------------|

The C/B i used in song is x22010


Am          G             C       D
If i had a gun for every ace i've drawn,
C             Em               Am
I could arm a town the size of abilene
Am               C G   Em               D
Don't ya push me baby 'cause i'm moanin low
        C        C/B  Am    G       Am
and you know i'm only in it for the gold

Chorus
G         D           A
Last fair deal in the country, Sweet suzy
G         D           A
Last fair deal in the town
G            D                A
Put you gold money where your love is baby
   C       C/B     Am  G   D           Am
Before you let my deal go down.......go down

Am            G             C        D
All that i am asking for is ten gold dollars
C                   Em                 Am
and i could pay you back with one good hand
Am               C  G         Em         D
you can look around about the wide world over
           C     C/B  Am      G      Am
and you'll never find another honest man
 repeat chorus G  D A C  C/B Am G D Am


Am                 G C                   D
Don't you push me baby cause i'm moaning low
C                    Em                     Am
Well i know a little something that you may never know
Am                  C  G         Em           D
Dont ya touch hard liquor, just a cup of cold coffee                    
C        C/B Am    G            Am
im gonna get up in the morning and go

Repeat chorus G  D A C  C/B Am G D Am

Am         G           C            D
Everybodys braggin and drinkin that wine
C                       Em              Am
i can tell the queen of diamonds by the way she shines
Am      C  G   Em           D
Come to daddy on the inside straight
 C            C/B  Am  G       Am
And i got no chance of losing this time
 C            C/B  Am  G       Am
No i got no chance of losing this time
comments
print report bad tab
3 comments total.
+1 reply
SkwisgarSwigelf wrote on June 13 2008, 02:48 am

dude it looks andf sound preet good been lookin for a goo version of the for a whie plus im glad u addwhat the C/B was because the shit the ggot in loos immpossible thx for awesome post

0 reply
dyodji wrote on June 20 2013, 12:14 am


Intro d u
E ---------------------0-0----------------|
B----------------------1-1----------------|
g----------------------2-2----------------|
D---1^2-----1p0--------2-2----------------|
A--------0-------3--0---------------0-----|
E---------------------------0--3----------|

0 reply
dyodji wrote on June 21 2013, 11:30 pm

no idea why the top line flipped like that...trying again

 
Intro d u
E----------------------0-0----------------|
B----------------------1-1----------------|
g----------------------2-2----------------|
D---1^2-----1p0--------2-2----------------|
A--------0-------3--0---------------0-----|
E---------------------------0--3----------|

I want to post or [tab]
guest
You may want to rate the tab now too:
select rating
Please do not post tabs as comments. Select "correction" instead!