Oops, an error
Loading. Please wait.

Morning Dew Bass Tab

3,132 views 6 this week
2 commentsread comments
1 2 3 4 5
please rate
add to favorites
launch autoscroll
font size
0
reset
guitar tuner
Autoscroll
slow
fast
+/-
esc
set tempo
stop
Help us to improve Ultimate-Guitar.com Take our survey!
×
Author
-------------------------------------------------------------------------------
			     Morning Dew - Grateful Dead
-------------------------------------------------------------------------------

Tabbed By : Au79 XY (Steven Docherty)
e-mail: william.lamar@yahoo.com (Don't ask :P)

The song is very simple, just a few open and fretted notes.
Nice to jam along to, it's quite easy to figure out a scale from the basic bass line.
Peace out, Deadheads :).

Tuning: Standard (EADG)

G|---------------------------------------------------------------------------|
D|----0---0-0-0-----------0---0-0-0---0-0-0---0-0-0--------------------------|
A|---------------3-3---------------------------------------------------------|
E|-------------------3-3-----------------------------------------------------|
      Walk me out in the morning dew, my honey
      Walk me out in the morning dew, today

G|---------------------------------------------------------------------------|
D|----3---3-3-3------5-5--0---0-0-0---0-0-0---0-0-0--------------------------|
A|---------------3-3---------------------------------------------------------|
E|---------------------------------------------------------------------------|
      Can't walk you out in the morning dew, my honey
      Can't walk you out in the morning dew, today
Suggest correction
Give kudos to tab author, rate the tab!
1 2 3 4 5
comments
print report bad tab
2 comments total.
0 reply
Rick_Danko 10 wrote on January 22 2011, 06:42 am

Have you ever listened to this song? It has a great and intricate bassline, often doubling the lead guitar on the solos.

0 reply
AU79 XY 121 wrote on March 20 2011, 06:22 pm

Have you ever listened to the multiple versions of this song? Fair enough I wrote this tab when I was 14 and knew shit about guitar but 1 star? At least I laid it out correctly.

guest
You may want to rate the tab now too:
select rating
Wanna post a correction for this tab? Suggest correction