Oops, an error
Loading. Please wait.

New Speedway Boogie Tab

version 1
version 1

Whole song

18,445 views 24 this week
2 commentsread comments
1 2 3 4 5
2 more votes to show rating
add to favorites
launch autoscroll
font size
0
reset
how to read this tab
guitar tuner
Autoscroll
slow
fast
+/-
esc
set tempo
stop
Help us to improve Ultimate-Guitar.com Take our survey!
×
-------------------------------------------------------------------------------
                             new speedway boogie - Grateful Dead
-------------------------------------------------------------------------------

Email:a.colavolpe@sbcglobal.net


i really need this is halloween by marilyn manson, mr.crowly by cradle of filth,and the 
kills farmers tabbed the right way for guitar thanks


Intro
e|------------------------------------------------|
B|------------------------------------------------|
G|------------------------------------------------|
D|------------------------------------------------|
A|---------------5----5--5------5---5----5--7-----|
E|-0--5p6p7--00-----0--------0----0---0-----------|

e|-----------------------------------------|
B|-----------------------------------------|
G|-----------------------------------------|
D|-----------------------------------------|
A|--------5----5--5-----5----5---5--7------|
E|---0--0----0-------0-----0---0-----------|

Verse
please....
e|----(3)--0--0----0----0--0---------------------------------------|
B|-*-------------3----0--------0--0--3-(3)--00---------------------|
G|--------------------------------------------3h2--3h4--0h1--------|
D|-----------------------------------------------------------------|
A|-*---------------------------------------------------------------|
E|-----------------------------------------------------------------|

e|---3h4--0--0---------0--0----------------------|
B|---------------3--0-------------0--0-----------|
G|-----------------------------3-----------------|
D|-----------------------------------------------|
A|-----------------------------------------------|
E|-----------------------------------------------|

e|------------------------------0--3--0-0-----0--------------|
B|-(0)------------0------------------------3----3--0---------|
G|-------2--0--2----0----------------------------------------|
D|---------------------2--(2)--------------------------------|
A|-----------------------------------------------------------|
E|-----------------------------------------------------------|

e|-0--0--------0-----0-0-----------------------|
B|--------3p0-----3------2--0-2-0h1------------|
G|---------------------------------------------|
D|---------------------------------------------|
A|---------------------------------------------|
E|---------------------------------------------|

e|--3--3--0-----0---------0-0---------------------------------------|
B|-----------3----3--0-3--------0---(0)-------0----------0----------|
G|---------------------------------------0-2-----2--0-3-----2-------|
D|------------------------------------------------------------------|
A|------------------------------------------------------------------|
E|------------------------------------------------------------------|

e|--0--3--0--0---------00-----------------------------------|
B|---------------0--3------00-(0)-0---------0-----0---0-----|
G|----------------------------------2--2--0----2------------|
D|----------------------------------------------------------|
A|----------------------------------------------------------|
E|----------------------------------------------------------|


e|-3--0---0-----------0---0-------------------------------|
B|-----------3---0--3---------0-0--(0)--0-----------------|
G|-----------------------------------------2---2---0------|
D|--------------------------------------------------------|
A|--------------------------------------------------------|
E|--------------------------------------------------------|

e|-------------------------------------------5----5---(5)----|
B|-----0---------0------(0)----------(0)-----5----5---(5)----|
G|-----------2-----------------------------------------------|
D|-----------------------------------------------------------|
A|-----------------------------------------------------------|
E|-----------------------------------------------------------|

e|-3--0---0-----------0---0---------------------------------|
B|-----------3---0--3---------0-0--(0)--0---------------*---|
G|-----------------------------------------2---2---0--------|
D|----------------------------------------------------------|
A|------------------------------------------------------*---|
E|----------------------------------------------------------|

-----------------------------------------------------0---------------------|
-----------------------------------------------3-------------3-------------|
-------------------3p2p02--0h1-----------2/4-----0/4----2/4---0------------|
-------0-----0h2--------------2-(2)--2--------------------------2----------|
--0h2----------------------------------------------------------------------|
-----------0------0--------------------------------------------------------|


-----0---0------------0---0--0----------------|
-------------3--0-3--------------3----0-------|
----------------------------------------------|
----------------------------------------------|
----------------------------------------------|
----------------------------------------------|


--0-------0---0-------------------------------|
------3----------3--0-------------------------|
----------------------------------------------|
----------------------------------------------|
----------------------------------------------|
----------------------------------------------|

-----0----------------------------------------|
--3------3---2--(2)---0---2--0--0-------------|
-----------------------------------2----------|
----------------------------------------------|
----------------------------------------------|
----------------------------------------------|

| /  slide up
| \  slide down
| h  hammer-on
| p  pull-off
| ~  vibrato
| +  harmonic
| x  Mute note
===============================================================================
Suggest correction
Give kudos to tab author, rate the tab!
1 2 3 4 5
comments
print report bad tab
2 comments total.
0 reply
ripdime04 40 Jul 20, 2009 08:10 PM

hey dude this is a descent tab i believe the pull offs in the intro are hammer on instead and honestly, not to be a dick or anything just feedback, alot of the other stuff didnt sound correct at all. good try man
(hell at least you can tab i cant even tab yet man.)

0 reply
joshpick19 20 Oct 30, 2009 11:06 AM

Hey man i gotta agree with ripdime04. its a great intro though like he said. nice try for a GREAT Dead song. Peace man...

guest
You may want to rate the tab now too:
select rating
Wanna post a correction for this tab? Suggest correction